36 Crazyfists - All I Am Chords & Tabs

 

All I Am Chords & Tabs

36 Crazyfists Chords & Tabs

Version: 1 Type: Bass Tab 0 ratings
1 star 2 stars 3 stars 4 stars 5 stars
comments

All I Am Bass Tab

   
#----------------------------------PLEASE NOTE---------------------------------#
#This file is the author's own work and represents their interpretation of the-#
#song. You may only use this file for private study, scholarship, or research.-#
#------------------------------------------------------------------------------#

Song: All I am

Band: 36 Crazyfists
Album: Bitterness the star
Instrument: Bass

Tuning: (C,G,C,F) the best tuning


Intro

F:--------------------------------------------------------------------]
C:--------------------------------------------------------------------]
G:--------------------------------------------------------10----------]
C:---6-5-0-6-5-0-6-5-0---10/---7---6-5-0-6-5-0-6-5-0---10----10---7---]

Intro 2

F:---------------------------------------]
C:---------------------------------------]
G:---------------------------------------]
C:---6-5-0-6-5-0-4-5---6-5-0-6-5-0-(3)---]

Intro 3
[ Tab from: http://www.guitartabs.cc/tabs/0-9/36_crazyfists/all_i_am_btab.html ]
F:----------------------------------------------------------------------------------]
C:----------------------------------------------------------------------------------]
G:----------------------------------------------------------------------------------]
C:---6-5-0-6-5-0-4-5---6-5-0-6-5-0-(3)---6-5-0-6-5-0-4-5---6-5-0-6-5-0-55-77-88-(4)-]

Verse

F:-----------------------]
C:-----------------------]
F:-----------------------]
C:---5---6-8---3---5-3---]

Verse 2

F:----------------------------------]
C:-------11---------------9---------]
G:---9---------9------7--------7/---]
C:----------------------------------]

Chorus

F:--------------------------------]
C:--------------------------------]
G:--------------------------------]
C:--44---5-44---5---0-0---44---5--]

Interlude

F:--------------------------------------]
C:--------------------------------------]
F:---------5---55-----------------------]
C:---3---33------------9---99----5-555--]

Outro

F:---------------------------------]
C:---------------------------------]
G:---------------------------------]
C:---44---5-44---5---4-4---44---5--]

Order

Intro
Intro2 
Intro3
Verse
Verse2
Verse 
Chorus
Verse
Verse2
Verse
Chorus
Interlude
Verse
Verse2
Verse
Chorus
Interlude
Chorus
Outro
Comments