36 Crazy Fists - Slit Wrist Theory Chords & Tabs

 

Slit Wrist Theory Chords & Tabs

36 Crazy Fists Chords & Tabs

Version: 1 Type: Tab 1 rating
1 star 2 stars 3 stars 4 stars 5 stars
comments

Slit Wrist Theory Tab

   
in drop c

VERSE
F---------------------------5-5
C----8-8---7-7-5---8-8---7-7---
G-------6-6---3-------6-6------
C-5-5-----------5-5------------
[ Tab from: http://www.guitartabs.cc/tabs/0-9/36_crazy_fists/slit_wrist_theory_tab.html ]
NEXT PART
C-2-4-4-2-5-5-2-5
G-2-4-4-2-5-5-2-5
C-2-4-4-2-5-5-2-5  X'S4

THEN
C-0-1-3-4-0-1-3
G-0-1-3-4-0-1-3
C-0-1-3-4-0-1-3

THAT IS ALL I CAN REMEMBER OFF OF THE TOP OF MY HEAD
Comments