34 Spoons - New York Is So Far Away Chords & Tabs

 

New York Is So Far Away Chords & Tabs

34 Spoons Chords & Tabs

Version: 2 Type: Tab 0 ratings
1 star 2 stars 3 stars 4 stars 5 stars
comments

New York Is So Far Away Tab

#----------------------------------PLEASE NOTE---------------------------------#
#This file is the author's own work and represents their interpretation of the #
#song. You may only use this file for private study, scholarship, or research. #
#------------------------------------------------------------------------------##

Title: 	new york is so far away
Artist: 34 Spoons
Tabbed by: Justin Austin

        Intro/Verse 1 (X2)
E|--------------------------------------------------------------|
B|--------------------------------------------------------------|
G|-------------------6--66--------------------------------------|
D|-7---77---3--33----6--66----2---------------------------------|
A|-7---77---3--33----4--44----2---------------------------------|
E|-5---55---1--11-------------0---------------------------------|

            Verse 2 (X4)
E|-----------------------------------------------------------|
B|-----------------------------------------------------------|
G|------99 -66X--77------------------------------------------|
D|-77X--99--66X--77--77--44--222222--------------------------|
A|-77X--77--44X--55--77--44--222222--------------------------|
E|-55X---------------55--22--000000--------------------------|
[ Tab from: http://www.guitartabs.cc/tabs/0-9/34_spoons/new_york_is_so_far_away_tab_ver_2.html ]
             Verse 3 (X2)
E|-----------------------------------------------------------|
B|-----------------------------------------------------------|
G|-----77------66/7------------------------------------------|
D|-77--77--77--66/7------------------------------------------|
A|-77--55--77--44/5------------------------------------------|
E|-55------55------------------------------------------------|

             Chorus* Figure out strumming (X2)
E|-----------------------------------------------------------|
B|-----------------------------------------------------------|
G|-------9-----6-----7---------------------------------------|
D|-7-----9-----6-----7---------------------------------------|
A|-7-----7-----4-----5---------------------------------------|
E|-5---------------------------------------------------------|

            Verse 4
E|-----------------------------------------------------------|
B|-----------------------------------------------------------|
G|---------------6--66--7------------------------------------|
D|-7--77--2--22--6--66--7------------------------------------|
A|-7--77--2--22--4--44--5------------------------------------|
E|-5--55--0--00----------------------------------------------|


Chorus Again


               Inturlude* Figuring Strumming Except Last
E|-----------------------------------------------------------|
B|-----------------------------------------------------------|
G|-------9-----6-----7--------4------------------------------|
D|-7-----9-----6-----7-----7774422---------------------------|
A|-7-----7-----4-----5-----7772422---------------------------|
E|-5-----------------------555-200---------------------------|
*someone please figure out the solo


Verse 2

Verse 3

Chorus

Verse 4

Chorus (2) then end finger picking 9-9-7 power chord

34 spoons is an awesome band download their stuff go to 34spoons.com!
any corrections send to boylikeswater@hotmail.com,
Comments