311 - You Wouldnt Believe Chords & Tabs

 

You Wouldnt Believe Chords & Tabs

311 Chords & Tabs

Version: 3 Type: Tab 0 ratings
1 star 2 stars 3 stars 4 stars 5 stars
comments

You Wouldnt Believe Tab

   
"311 - You Wouldn't Believe"
Transcribed by: Nick Coulter
E-mail: ncoult@hotmail.com

I'm sure this is 100% right, e-mail if any questions.
Also check out my other tab I did, Cypress Hill - Rock Superstar

Intro:
  Gtr. 1 (w/dist.)
  P.M._______________________________|
e|-------------------------------------|
B|-----7-------7---------5-------5-----|
G|---5---5---5---5-----5---5---5---5---|
D|-7-------7-------7-5-------5-------5-|
A|-------------------------------------|
E|-------------------------------------|

   P.M.____________________________|
e|-----------------------------------|
B|-----7-------7---------5-----------|
G|---5---5---5---5-----5---5---5---5-|
D|-7-------7-------7-5-------5---5---|
A|-----------------------------------|
E|-----------------------------------|

Pre-chorus:
  Gtr. 1 (w/dist. & flanger)
e|-----------------------|
B|---------1--3-5-6-5--3-|
G|-2---3-----------------|
D|-----------------------|
A|-----------------------|
E|-----------------------|
[ Tab from: http://www.guitartabs.cc/tabs/0-9/311/you_wouldnt_believe_tab_ver_3.html ]
Chorus:
  Gtr. 1 (w/dist.)
  P.M.______|                   P.M._|
e|-----------|-----------------------------|
B|-----------|-----------------------------|
G|-7-7---7-7-|-7-X-7-7-[7]-5-[5]---4---5-5-|
D|-7-7---7-7-|-7-X-7-7-[7]-5-[5]---4---5-5-|
A|-5-5---5-5-|-5-X-5-5-[5]-3-[3]-0-2-0-3-3-|
E|-5-5-0-5-5-|-5-X-5-5-[5]-3-[3]-0-2-0-3-3-|
                 N.H.  N.H.

Break:
  Gtr. 1 (w/dist.)
  P.M.___________________________|
e|---------------------------------|
B|---------------------------------|
G|---------------------------------|
D|---------------------------------|
A|---------------------------------|
E|-0-0-0-2-2-2-3-3-3-5-5-5-6-6-7-7-|

Outro:
  Gtr. 1 (w/dist.)
e|--------------------------------------------|
B|--------------------------------------------|
G|--------------------------------------------|
D|-10--10--7--10--7--10--10--10--7--10--7--10-|
A|-10--10--7--10--7--10--10--10--7--10--7--10-|
E|-8---8---5--8---5--8---8---8---5--8---5--8--|

e|--------------------------------||
B|--------------------------------||
G|--------------------------------||
D|-10--10--7--10--7--10--12--12\--||
A|-10--10--7--10--7--10--12--12\--||
E|-8---8---5--8---5--8---10--10\--||

Comments