311 - You Wouldnt Believe Chords & Tabs

 

You Wouldnt Believe Chords & Tabs

311 Chords & Tabs

Version: 3 Type: Bass Tab 0 ratings
1 star 2 stars 3 stars 4 stars 5 stars
comments

You Wouldnt Believe Bass Tab

Song:you wouldnt believe
Band:311
Tabber:T4-TURBO
Album:From Chaos

chorus:
g:----------------------------------|
d:----------------------------------|
a:---------------------------0-3-0-3|
e:----------------------------------|
b:33-3-3-3-1-1-111-3-333-1-1--------|
[ Tab from: http://www.guitartabs.cc/tabs/0-9/311/you_wouldnt_believe_btab_ver_3.html ]
riff2:
g:------------------------------------|
d:------------------------------------|
a:-------------------0-0-0-2-2-2-3-3-3|
e:0-0-0--2-2-2-3-3-3------------------|
b:------------------------------------|

bass solo:
g:------2-4-5-4-22-4-2-420-------2-4-5-4-22-4-2-789-789|
d:0-4-5--------------------0-4-5-----------------------|
a:-----------------------------------------------------|
e:-----------------------------------------------------|
b:-----------------------------------------------------|

end:
g:-------------------------------|
d:-------------------------------|
a:3-03-03-3-03-03-3-3-03-03------|
e:-------------------------------|
b:--------------------------5-5\1|
Comments