311 - You Get Worked Chords & Tabs

 

You Get Worked Chords & Tabs

311 Chords & Tabs

Version: 1 Type: Tab 0 ratings
1 star 2 stars 3 stars 4 stars 5 stars
comments

You Get Worked Tab

#----------------------------------PLEASE NOTE---------------------------------#
#This file is the author's own work and represents their interpretation of the #
#song. You may only use this file for private study, scholarship, or research. #
#------------------------------------------------------------------------------##
                                  You Get Worked
                                     by: 311  
                               This tab by: Bill Dunn

Tuning: Straight up EADGBE, (standard if you will)

About this song:  Okay, this song is easy.  Me and my friend Vin figured this 
whole thing out, so try it.

It was Vin who pointed out to me that what makes this song so good is the fact 
that Tim and P-Nut play the exact same thing.  Instead of using powerchords at
some parts, which could easily be done by any pro, Tim plays only notes to stay 
away from the grunge sound that 311 never has.  This is one of the things that 
makes 311 so unique.

Anyway, enough about 311, this song was written in full score form, in other words,
I didn't feel like doing the whole riff thing this time, so i just wrote it all and 
wrote the first few lyrics on the bottom of the staffs so you know where you are in 
the song.  



    H= about 110bpm                 1st ending
   2/2                              _________________________________
    Tim                            |
    E. S Q  Q  E. S   E. S Q  H      E. S Q  Q  E. S   E. S Q  H
||------------------|--------------|-----------------|---------------||
||o-----------------|--------------|-----------------|--------------o||
||--2--0-2-----2--0-|-2--0-2-------|-2--0-2-----2--0-|-2--0-2--------||
||------------------|--------------|-----------------|---------------||
||o-----------------|--------------|-----------------|--------------o||
||------------------|--------------|-----------------|---------------||


  2nd ending
                  Tim and Nick
________________          ~
                | |--3--|
  E. S Q  Q  Q    Q  Q  Q H
|---------------|--------------|
|---------------|--------------|
|-2--0-2-----2--|-2--0---------|
|---------------|-------2-1----|
|---------------|--------------|
|---------------|--------------|

[If you know anything about music, you should know what these symbols mean]

    Tim
    E. S Q  Q  E. S   E. S Q  H      E. S Q  Q  E. S   E. S Q  H
||------------------|--------------|-----------------|-------------|
||o-----------------|--------------|-----------------|-------------|
||------------------|--------------|-----------------|-------------|
||------------------|--------------|-----------------|-------------|
||o-----------------|--------------|-----------------|-------------|
||--5--3-5-----5--3-|-5--3-5-------|-5--3-5-----5--3-|-5--3-5------|
|
|   Nick
|   E. S Q  Q  E. S   E. S Q  H      E. S Q  Q  E. S   E. S Q  H
||------------------|--------------|-----------------|-------------|
||o-----------------|--------------|-----------------|-------------|
||--2--0-2-----2--0-|-2--0-2-------|-2--0-2-----2--0-|-2--0-2------|
||------------------|--------------|-----------------|-------------|
||o-----------------|--------------|-----------------|-------------|
||------------------|--------------|-----------------|-------------|
This is happening, this here is life...
[This is Nick's only significance in the guitar part.]

                                                           ~
  E. S Q  Q  E. S   E. S Q  H      E. S Q  Q  Q    Q  E. S H
|-----------------|--------------|---------------|---------------||
|-----------------|--------------|---------------|--------------o||
|-----------------|--------------|---------------|---------------||
|-----------------|--------------|---------------|---------------||
|-----------------|--------------|---------------|--------------o||
|-5--3-5-----5--3-|-5--3-5-------|-5--3-5-----5--|-0--0--1-0-----||
|
|                                                          ~
| E. S Q  Q  E. S   E. S Q  H      E. S Q  Q  Q    Q  E. S H
|-----------------|--------------|---------------|---------------||
|-----------------|--------------|---------------|--------------o||
|-2--0-2-----2--0-|-2--0-2-------|-2--0-2-----2--|---------------||
|-----------------|--------------|---------------|-2--2--3-2-----||
|-----------------|--------------|---------------|--------------o||
|-----------------|--------------|---------------|---------------||


  Tim
  PM------------------------------------------------------------------------|
  E. S E. S Q  E. S   E. S Q  E. S Q    E. S E. S Q  E. S   E. S Q  E. S E. S
|-------------------|-----------------|-------------------|-------------------|
|-------------------|-----------------|-------------------|-------------------|
|-------------------|-----------------|-------------------|-------------------|
|-------------------|-----------------|-------------------|-------------------|
|-------------------|-----------------|-------------------|-------------------|
|-0--0-0--0----0--0-|-0--0----0--0-0--|-0--0-0--0----0--0-|-0--0----0--0-0--0-|
Brainstorm, supercieding the norm...
[don't know if I spelled that right]

  PM----------------------------------------------------|
  E. S E. S Q  E. S   E. S Q  E. S Q    E. S E. S Q  E. S   h    H
|-------------------|-----------------|-------------------|-----------|
|-------------------|-----------------|-------------------|-----------|
|-------------------|-----------------|-------------------|-----------|
|-------------------|-----------------|-------------------|-----------|
|-------------------|-----------------|-------------------|-----------|
|-0--0-0--0----0--0-|-0--0----0--0-0--|-0--0-0--0----0--0-|-0---------|


  Tim
  E. S Q  Q  E. S   E. S Q  H      E. S Q  Q  E. S   E. S Q  H
|-----------------|--------------|-----------------|--------------|
|-----------------|--------------|-----------------|--------------|
|-----------------|--------------|-----------------|--------------|
|-----------------|--------------|-----------------|--------------|
|-----------------|--------------|-----------------|--------------|
|-5--3-5-----5--3-|-5--3-5-------|-5--3-5-----5--3-|-5--3-5-------|
|
| Nick
| E. S Q  Q  E. S   E. S Q  H      E. S Q  Q  E. S   E. S Q  H
|-----------------|--------------|-----------------|--------------|
|-----------------|--------------|-----------------|--------------|
|-2--0-2-----2--0-|-2--0-2-------|-2--0-2-----2--0-|-2--0-2-------|
|-----------------|--------------|-----------------|--------------|
|-----------------|--------------|-----------------|--------------|
|-----------------|--------------|-----------------|--------------|


                                                           ~
  E. S Q  Q  E. S   E. S Q  H      E. S Q  Q  Q    Q  E. S H
|-----------------|--------------|---------------|--------------|
|-----------------|--------------|---------------|--------------|
|-----------------|--------------|---------------|--------------|
|-----------------|--------------|---------------|--------------|
|-----------------|--------------|---------------|--------------|
|-5--3-5-----5--3-|-5--3-5-------|-5--3-5-----5--|-0--0--1-0----|
|
|                                                          ~
| E. S Q  Q  E. S   E. S Q  H      E. S Q  Q  Q    Q  E. S H
|-----------------|--------------|---------------|--------------|
|-----------------|--------------|---------------|--------------|
|-2--0-2-----2--0-|-2--0-2-------|-2--0-2-----2--|--------------|
|-----------------|--------------|---------------|-2--2--3-2----|
|-----------------|--------------|---------------|--------------|
|-----------------|--------------|---------------|--------------|

[ Tab from: http://www.guitartabs.cc/tabs/0-9/311/you_get_worked_tab.html ]
    Tim (Using Reverb FX)
    Q  Q  Q  Q    +Q   Q  Q  Q    +Q   Q  Q  Q    +Q   Q  H    4x
||--------------|---------5--4--|-(4)--------2--|-(2)----------||
||o----------5--|-(5)-----------|------5--------|------3------o||
||--------4-----|------4--------|---------4-----|---------2----||
||-----6--------|---------------|---------------|--------------||
||o-7-----------|---------------|---------------|-------------o||
||--------------|---------------|---------------|--------------||
Everybody gets confused...
[let this all ring out as much as possible.  I wasn't too sure about
this part, but I'd love to see you do any better! jk]

  Tim
  E. S Q  Q  E. S   E. S Q  H      E. S Q  Q  E. S   E. S Q  H
|-----------------|--------------|-----------------|--------------|
|-----------------|--------------|-----------------|--------------|
|-----------------|--------------|-----------------|--------------|
|-----------------|--------------|-----------------|--------------|
|-----------------|--------------|-----------------|--------------|
|-5--3-5-----5--3-|-5--3-5-------|-5--3-5-----5--3-|-5--3-5-------|
|
| Nick
| E. S Q  Q  E. S   E. S Q  H      E. S Q  Q  E. S   E. S Q  H
|-----------------|--------------|-----------------|--------------|
|-----------------|--------------|-----------------|--------------|
|-2--0-2-----2--0-|-2--0-2-------|-2--0-2-----2--0-|-2--0-2-------|
|-----------------|--------------|-----------------|--------------|
|-----------------|--------------|-----------------|--------------|
|-----------------|--------------|-----------------|--------------|
I'm on a new high...

                                                           ~
  E. S Q  Q  E. S   E. S Q  H      E. S Q  Q  Q    Q  E. S H
|-----------------|--------------|---------------|--------------|
|-----------------|--------------|---------------|--------------|
|-----------------|--------------|---------------|--------------|
|-----------------|--------------|---------------|--------------|
|-----------------|--------------|---------------|--------------|
|-5--3-5-----5--3-|-5--3-5-------|-5--3-5-----5--|-0--0--1-0----|
|
|                                                          ~
| E. S Q  Q  E. S   E. S Q  H      E. S Q  Q  Q    Q  E. S H
|-----------------|--------------|---------------|--------------|
|-----------------|--------------|---------------|--------------|
|-2--0-2-----2--0-|-2--0-2-------|-2--0-2-----2--|--------------|
|-----------------|--------------|---------------|-2--2--3-2----|
|-----------------|--------------|---------------|--------------|
|-----------------|--------------|---------------|--------------|


  Tim
  PM------------------------------------------------------------------------|
  E. S E. S Q  E. S   E. S Q  E. S Q    E. S E. S Q  E. S   E. S Q  E. S E. S
|-------------------|-----------------|-------------------|-------------------|
|-------------------|-----------------|-------------------|-------------------|
|-------------------|-----------------|-------------------|-------------------|
|-------------------|-----------------|-------------------|-------------------|
|-------------------|-----------------|-------------------|-------------------|
|-0--0-0--0----0--0-|-0--0----0--0-0--|-0--0-0--0----0--0-|-0--0----0--0-0--0-|


  PM----------------------------------------------------|
  E. S E. S Q  E. S   E. S Q  E. S Q    E. S E. S Q  E. S   h    H
|-------------------|-----------------|-------------------|-----------|
|-------------------|-----------------|-------------------|-----------|
|-------------------|-----------------|-------------------|-----------|
|-------------------|-----------------|-------------------|-----------|
|-------------------|-----------------|-------------------|-----------|
|-0--0-0--0----0--0-|-0--0----0--0-0--|-0--0-0--0----0--0-|-0---------|


  Tim
  Q  Q   Q   Q    E E E E +Q   Q    Q  Q   Q   Q    E E E E +Q   Q  4x
|---------------|-----------------|---------------|-----------------||
|---------------|-----------------|---------------|-----------------||
|---------------|-----------------|---------------|----------------o||
|---------------|-----------------|---------------|----------------o||
|---------------|-3-4-6-----------|---------------|-3-4-6-----------||
|-5--4----4--|-------4-(4)--4--|-5--4----4--|-------4-(4)--4--||
What gives, are you after me...?
[  ]

  Tim
  E. S Q  Q  E. S   E. S Q  H      E. S Q  Q  E. S   E. S Q  H
|-----------------|--------------|-----------------|--------------|
|-----------------|--------------|-----------------|--------------|
|-----------------|--------------|-----------------|--------------|
|-----------------|--------------|-----------------|--------------|
|-----------------|--------------|-----------------|--------------|
|-5--3-5-----5--3-|-5--3-5-------|-5--3-5-----5--3-|-5--3-5-------|
|
| Nick
| E. S Q  Q  E. S   E. S Q  H      E. S Q  Q  E. S   E. S Q  H
|-----------------|--------------|-----------------|--------------|
|-----------------|--------------|-----------------|--------------|
|-2--0-2-----2--0-|-2--0-2-------|-2--0-2-----2--0-|-2--0-2-------|
|-----------------|--------------|-----------------|--------------|
|-----------------|--------------|-----------------|--------------|
|-----------------|--------------|-----------------|--------------|
                          WHOOOOO!                          HAHA!
                                                           ~
  E. S Q  Q  E. S   E. S Q  H      E. S Q  Q  Q    Q  E. S H
|-----------------|--------------|---------------|--------------|
|-----------------|--------------|---------------|--------------|
|-----------------|--------------|---------------|--------------|
|-----------------|--------------|---------------|--------------|
|-----------------|--------------|---------------|--------------|
|-5--3-5-----5--3-|-5--3-5-------|-5--3-5-----5--|-0--0--1-0----|
|
|                                                          ~
| E. S Q  Q  E. S   E. S Q  H      E. S Q  Q  Q    Q  E. S H
|-----------------|--------------|---------------|--------------|
|-----------------|--------------|---------------|--------------|
|-2--0-2-----2--0-|-2--0-2-------|-2--0-2-----2--|--------------|
|-----------------|--------------|---------------|-2--2--3-2----|
|-----------------|--------------|---------------|--------------|
|-----------------|--------------|---------------|--------------|


    Tim (Using Reverb FX)
    Q  Q  Q  Q    +Q   Q  Q  Q    +Q   Q  Q  Q    +Q   Q  H    4x
||--------------|---------5--4--|-(4)--------2--|-(2)----------||
||o----------5--|-(5)-----------|------5--------|------3------o||
||--------4-----|------4--------|---------4-----|---------2----||
||-----6--------|---------------|---------------|--------------||
||o-7-----------|---------------|---------------|-------------o||
||--------------|---------------|---------------|--------------||
If you don't watch your back...


  Tim
  Q  Q   Q   Q    E E E E +Q   Q    Q  Q   Q   Q    E E E E +Q   Q  4x
|---------------|-----------------|---------------|-----------------||
|---------------|-----------------|---------------|-----------------||
|---------------|-----------------|---------------|----------------o||
|---------------|-----------------|---------------|----------------o||
|---------------|-3-4-6-----------|---------------|-3-4-6-----------||
|-5--4----4--|-------4-(4)--4--|-5--4----4--|-------4-(4)--4--||
I'm on a new high...

  Tim
  W          +W           W          +W
|----------|------------|----------|--------|
|----------|------------|----------|--------|
|-8--------|-(8)--------|-8--------|-(8)----|
|-8--------|-(8)--------|-8--------|-(8)----|
|-6--------|-(6)--------|-6--------|-(6)----|
|----------|------------|----------|--------|
Yeah you get worked...
[This part is all samples and bass, I think.  This is the only
guitar I could pick out of it]


  Tim
  Q  Q   Q   Q    E E E E +Q   Q    Q  Q   Q   Q    E E E E +Q   Q  2x
|---------------|-----------------|---------------|-----------------||
|---------------|-----------------|---------------|-----------------||
|---------------|-----------------|---------------|----------------o||
|---------------|-----------------|---------------|----------------o||
|---------------|-3-4-6-----------|---------------|-3-4-6-----------||
|-5--4----4--|-------4-(4)--4--|-5--4----4--|-------4-(4)--4--||
What gives are you after me...?

  Q  Q
|------
|------
|------
|------
|------
|-5--4-
You get worked.

And that's a wrap.  You wont get worked playing this song, it's pretty easy.
I jammed to it all weekend

   -Bill
BTDJR444@hotmail.com

***************************************************************************************
* Generated using Power Tab Editor by Brad Larsen - http://powertab.guitarnetwork.org *
***************************************************************************************
Comments