311 - Whiskey And Wine Chords & Tabs

 

Whiskey And Wine Chords & Tabs

311 Chords & Tabs

Version: 1 Type: Tab 0 ratings
1 star 2 stars 3 stars 4 stars 5 stars
comments

Whiskey And Wine Tab

   
¡§Whiskey and Wine¡¨ by: 311

Music By: Nick Hexum, Tim Mahoney, Aaron Wills, Chad Sexton
Lyrics By: Nick Hexum, Doug Martinez

Tabbed by: Chris Gill
Email: CGill1403@aol.com

Tuning: E A D G B E

Album Version

e|--7----7--7---7---7--7---7--7---x-x---4----4--4---4---4--4---4---5---6--|
B|--7----7--7---7---7--7---7--7---x-x---4----4--4---4---4--4---4---5---6--|
G|--8----8--8---8---8--8---8--8---x-x---5----5--5---5---5--5---5---6---7--|
D|--9----9--9---9---9--9---9--9---x-x---6----6--6---6---6--6---6---7---8--| „³
A|-(7)--------------------------------------------------------------------|
E|-(7)--------------------------------------------------------------------|

e|--7----7--7---7---7--7---7--7---x-x---4----4--4---4---4--4---4--4---x-x--|
B|--7----7--7---7---7--7---7--7---x-x---4----4--4---4---4--4---4--4---x-x--|
G|--8----8--8---8---8--8---8--8---x-x---5----5--5---5---5--5---5--5---x-x--|
D|--9----9--9---9---9--9---9--9---x-x---6----6--6---6---6--6---6--6---x-x--| x5
A|-------------------------------------------------------------------------|
E|-------------------------------------------------------------------------|


e|-----------------------------------------------------------------------------|
B|-----------6-------------------------------------5---------------------------|
G|--------5-----6h7-6-----6--------6------------6-----6h7-6-----6--------------|
D|--7--9---------------9-----7--9-----7---7--9---------------9-----7--7-7-7-7--| „³
A|-----------------------------------------------------------------------------|
E|-----------------------------------------------------------------------------|

e|-------------------------------------------------------------------------|
B|-----------5------------------------5---5--7--5--7--5--------------------|
G|--------6-----6h7-6-----6--------6---------------------6-6-7-6-----6-----|
D|--7--9---------------9-----7--9---------------------------------9-----7--|
A|-------------------------------------------------------------------------|
E|-------------------------------------------------------------------------|

[ Tab from: http://www.guitartabs.cc/tabs/0-9/311/whiskey_and_wine_tab.html ]
e|--7----7--7---7---7--7---7--7---x-x---4----4--4---4---4--4---4--4---x-x--|
B|--7----7--7---7---7--7---7--7---x-x---4----4--4---4---4--4---4--4---x-x--|
G|--8----8--8---8---8--8---8--8---x-x---5----5--5---5---5--5---5--5---x-x--|
D|--9----9--9---9---9--9---9--9---x-x---6----6--6---6---6--6---6--6---x-x--| x2
A|-------------------------------------------------------------------------|
E|-------------------------------------------------------------------------|
(parts of the solo are played at different times during the chourus)


(Rest)


e|-----------------------------------------------------------------------------|
B|-----------6-------------------------------------5---------------------------|
G|--------5-----6h7-6-----6--------6------------6-----6h7-6-----6--------------|
D|--7--9---------------9-----7--9-----7---7--9---------------9-----7--7-7-7-7--| „³
A|-----------------------------------------------------------------------------|
E|-----------------------------------------------------------------------------|

e|-------------------------------------------------------------------------|
B|-----------5------------------------5---5--7--5--7--5--------------------|
G|--------6-----6h7-6-----6--------6---------------------6-6-7-6-----6-----|
D|--7--9---------------9-----7--9---------------------------------9-----7--|
A|-------------------------------------------------------------------------|
E|-------------------------------------------------------------------------|


e|--7----7--7---7---7--7---7--7---x-x---4----4--4---4---4--4---4--4---x-x--|
B|--7----7--7---7---7--7---7--7---x-x---4----4--4---4---4--4---4--4---x-x--|
G|--8----8--8---8---8--8---8--8---x-x---5----5--5---5---5--5---5--5---x-x--|
D|--9----9--9---9---9--9---9--9---x-x---6----6--6---6---6--6---6--6---x-x--| x4
A|-------------------------------------------------------------------------|
E|-------------------------------------------------------------------------|
(parts of the solo are played at different times during the chorus)

e|----------------------------------------------------------------------------|
B|----------------------------------------------------------------------------|
G|----------------------------------------------------------------------------|
D|--8*----12*----8*----12----8*-------8*----12*----8*----12*----8*-------12*--|
A|----------------------------------------------------------------------------|
E|----------------------------------------------------------------------------|


| /  slide up
| \  slide down
| h  hammer-on
| p  pull-off
| ~  vibrato
| *  harmonic
| x  Mute note
| „³ sections are together
===============================================================================
Comments