311 - Welcome Chords & Tabs

 

Welcome Chords & Tabs

311 Chords & Tabs

Version: 2 Type: Bass Tab 0 ratings
1 star 2 stars 3 stars 4 stars 5 stars
comments

Welcome Bass Tab

'Welcome' - Bass Tab
Performed by 311
From the album "Music" on Capricorn Records
Music by:  N. Hexum & C. Sexton
Lyrics by:  N. Hexum & D. Martinez
(c) 1993 Allegiance Music/Hydroponic Music BMI
---------
Tabbed by: Jason Miller (jamille@hubcap.clemson.edu)
311 Guitar Archive - http://chromosome.colorado.edu/311archive/Home.html


Groove as your soul sings...
============================

1:-----------------------------------------------------------------------
2:-----------------------------------------------------------------------
3:-----3------------------------3--------------------3-------------------
4:-3-5----0-3-5--0-3-5-0-3--3-5----0-3-5--3--3---3-5----0-3-5--0-3-5-0-3-

1:----------------------
2:----------------------
3:----------------------
4:-3-5---0-5\-1-1-1-1-0-

1:-----------------------------------------------------------------------
2:-----------------------------------------------------------------------
3:-----3------------------------3--------------------3-------------------
4:-3-5----0-3-5--0-3-5-0-3--3-5----0-3-5--3--3---3-5----0-3-5--0-3-5-0-3-

1:-----------------------
2:-----------------------
3:-----3-----------------
4:-3-5----0-5\-1-1-1-1-0-


Welcome to this groove...
=========================
[ Tab from: http://www.guitartabs.cc/tabs/0-9/311/welcome_btab_ver_2.html ]
1:-----------------------------------------------------------------------
2:-----------------------------------------------------------------------
3:-----3------------------------3--------------------3-------------------
4:-3-5----0-3-5--0-3-5-0-3--3-5----0-3-5--3--3---3-5----0-3-5--0-3-5-0-3-

1:------------------------
2:------------------------
3:------3-----------------
4:--3-5----0-5\-1-1-1-1-0-

1:-----------------------------------------------------------------------
2:-----------------------------------------------------------------------
3:-----3------------------------3--------------------3-------------------
4:-3-5----0-3-5--0-3-5-0-3--3-5----0-3-5--3--3---3-5----0-3-5--0-3-5-0-3-

1:-----------------------
2:-----------------------
3:-----3-----------------
4:-3-5----0-5\-1-1-1-1-0-


The only thing I love... (0:56)
===============================

1:-----------------------------------6-6------------------------
2:---------------------------------------5-5-6-6----------------
3:---------3----------3-----------3--------------5-5----------3-
4:-3-5-3-5-----3-5--5-----3-5-3-5---------------------3-5-3-5---


I fought kicked and screamed...
===============================
   p   p p s  s  p  s s s    p p  s s 
1:----------------------------------------------------------------------
2:-2---5-4-4--4--2--5-5-4----2-5-4-4------------------------------------
3:----------------------------------------------2-0---------------------
4:------------------------------------3-5-3-5-3-----3-5-5-0-0-3-0-0-0-0-


That's all the parts.  It ends on an A note.  Just repeat as needed.

====================

Jason Miller (Millz)
http://hubcap.clemson.edu/~jamille/
http://www.nvg.unit.no/songs/jumpy_chair/


== Last Updated:  February 1, 1996 ==
Comments