311 - Wake Your Mind Up Chords & Tabs

 

Wake Your Mind Up Chords & Tabs

311 Chords & Tabs

Version: 1 Type: Bass Tab 0 ratings
1 star 2 stars 3 stars 4 stars 5 stars
comments

Wake Your Mind Up Bass Tab

     Song: Wake Up Your Mind
     Band: 311
     Tabbed By: Bucko (bassmanbucko@yahoo.com)

Riff 1:

G:-----------------
D:-----------------
A:-----------------
E:-----4-----------
B:-2-----2---2-----
   s   s s   s 

Riff 2:

G:-----------------------------------------------------------------
D:-----------------------------------------------------------------
A:-------------------------2-2-2---0-----------0-0---0---0-0---0---
E:---------------4---4---4-----------------------------------------
B:-2---------------------------------------------------------------
   s             s   s   s s s s   s           s s   s   s s   s

Riff 3:

G:---------------------------------------------------2-------------
D:---------4-------------------------------------------------------
A:-------------------0-----2h3-2p0-2-------2-2---0-----0-0-3---2p0-
E:-2---2-2---2---4-------2-----------------------------------------
B:-----------------------------------------------------------------
   s   s s p s   s   s   s s   s   s       s s   s   p s s s   s

Riff 4:
[ Tab from: http://www.guitartabs.cc/tabs/0-9/311/wake_your_mind_up_btab.html ]
G:-----------------------------------------------------------------
D:-------4-----------------------------------------------------0h2-
A:-----------------0-----2h3-2p0---2---0---2---0-3---2---0-0h2-----
E:-2---2-----2h4-----------------2---------------------------------
B:-----------------------------------------------------------------
   s   s p   s     s     s   s   s s   s   s   s s   s   s s   s   

Riff 5:

G:-----------------------------
D:-------------------------0h2-
A:-0---2---0-3---2---0-0h2-----
E:-----------------------------
B:-----------------------------
   s   s   s s   s   s s   s   

Riff 6:

G:-----------------------------------------------------------------
D:----------------(2)-------------(0)-------------(2)--------------
A:-----------------------------------------------------------------
E:-0--0--0---------0--0--0---------0--0--0---------0--0--0---------
B:-----------------------------------------------------------------
   s  s  s         s  s  s         s  s  s         s  s  s    

Riff 7 (Solo):

G:-----------------------------------------------------------------
D:-2h3-2---2-----------------------2h3-2---2-----------------------
A:-------3---3---2-----------------------3---3-3-2---2-------------
E:-------------------3-3-3-2---0-------------------3---3-2---------
B:-----------------------------------------------------------------
   s   s s s s   s   s s s s   s   s   s s s s s s s s s s

Song Order:

Guitar for 4 measures
Riff 1 x8
Riff 2 x4
Riff 1 x8
Riff 2 x4
Riff 3 x4
Riff 1 x8
Riff 2 x4
Riff 3 x4
Riff 4 x4
Riff 5 x2
Riff 6 x1
Riff 7 x8
Riff 1 x8
Comments