311 - Unity Chords & Tabs

 

Unity Chords & Tabs

311 Chords & Tabs

Version: 3 Type: Tab 0 ratings
1 star 2 stars 3 stars 4 stars 5 stars
comments

Unity Tab

   
311 - UNITY
CGill1403@aol.com

Tuning E,A,D,G,B,E low to high

Riff 1
e|--------------------------------------------|
B|--------------------------------------------|
G|--------------------------------------------|
D|--------------------------------------7---5-|
A|--3p2---0---3p2---0---3p2---0---0-0---5---3-|
E|------3---------3---------3-----------------|

e|--------------------------------------------|
B|--------------------------------------------|
G|--------------------------------------------|
D|--------------------------------------------|
A|--3p2---0---3p2---0---3p2---0---0-0---3---5-|
E|------3---------3---------3-----------1---3-|

Riff 2
e|-----------------------------------------|
B|-----------------------------------------|
G|--6---6-------4---6----6---6-------7---5-|
D|--7---7-------5---7----7---7-------7---5-|
A|--7---7-------5---7----7---7-------5---3-|
E|--5---5---0---3---5----5---5---0---------|

e|-----------------------------------------|
B|-----------------------------------------|
G|--6---6-------4---6----6---6-------2---4-|
D|--7---7-------5---7----7---7-------3---5-|
A|--7---7-------5---7----7---7-------3---5-|
E|--5---5---0---3---5----5---5---0---1---3-|

e|-----------------------------------------|
B|-----------------------------------------|
G|--6---6-------4---6----6---6-------7---5-|
D|--7---7-------5---7----7---7-------7---5-|
A|--7---7-------5---7----7---7-------5---3-|
E|--5---5---0---3---5----5---5---0---------|

e|-------------------------------------------x-----------x---------|
B|-------------------------------------------x-----------x---------|
G|--6---6-------4---6----6---6-------2---4---x---2---4---x---2---4-|
D|--7---7-------5---7----7---7-------3---5---x---3---5---x---3---5-|
A|--7---7-------5---7----7---7-------3---5---x---3---5---x---3---5-|
E|--5---5---0---3---5----5---5---0---1---3---x---1---3---x---1---3-|
                                      slap right hand to mute strings

Riff 3
e|-----------------------------------------------------------------|
B|-----------------------------------------------------------------|
G|-----------------------------------------------------------------|
D|-2-2-2-2-9-9-9-9-6-6-6-6-7-6-6-6-2-2-2-2-9-9-9-9-6-6-6-6-7-6-6-6-|
A|-2-2-2-2-9-9-9-9-6-6-6-6-7-6-6-6-2-2-2-2-9-9-9-9-6-6-6-6-7-6-6-6-|
E|-0-0-0-0-7-7-7-7-4-4-4-4-5-4-4-4-0-0-0-0-7-7-7-7-4-4-4-4-5-4-4-4-|
PM.................................................................

e|-----------------------------------------------------------------|
B|-----------------------------------------------------------------|
G|-----------------------------------------------------------------|
D|-2-2-2-2-9-9-9-9-6-6-6-6-7-6-6-6-2-2-2-2-9-9-9-9-6-6-6-6-7-6-6-6-|
A|-2-2-2-2-9-9-9-9-6-6-6-6-7-6-6-6-2-2-2-2-9-9-9-9-6-6-6-6-7-6-6-6-|
E|-0-0-0-0-7-7-7-7-4-4-4-4-5-4-4-4-0-0-0-0-7-7-7-7-4-4-4-4-5-4-4-4-|
PM.................................................................

e|---------------------------------------------------------------------|
B|---------------------------------------------------------------------|
G|-1-1-1-1-8-8-8-8-5-5-5-5-6-5-5-5-1-1-1-1-8-8-8-8-5-5-5-6-6-6-5-5-5---|
D|-2-2-2-2-9-9-9-9-6-6-6-6-7-6-6-6-2-2-2-2-9-9-9-9-6-6-6-7-7-7-6-6-6-2-|
A|-2-2-2-2-9-9-9-9-6-6-6-6-7-6-6-6-2-2-2-2-9-9-9-9-6-6-6-7-7-7-6-6-6-2-|
E|-0-0-0-0-7-7-7-7-4-4-4-4-5-4-4-4-0-0-0-0-7-7-7-7-4-4-4-5-5-5-4-4-4-0-|
                              notice the difference the last time through

Riff 4
e|-------------------------------------------------------------|
B|-------------------------------------------------------------|
G|-------------------------------------------------------------|
D|-----7------------------------------7------------------------|
A|-5---5---6---------4--6--4------5---5---6---------4--6--4----|
E|-3-------4---4--7-----------7---3-------4---4--7-----------7-|

e|-------------------------------------------------------------|
B|-------------------------------------------------------------|
G|-------------------------------------------------------------|
D|-----7------------------------------7------------------------|
A|-5---5---6---------4--6--4------5---5---6---------4--6--4----|
E|-3-------4---4--7-----------7---3-------4---4--7-----------7-|

e|-----------------------------------------|
B|-----------------------------------------|
G|---------------------------------------6-|
D|---------------------------------------7-|
A|-------4--6--4------------4--6--4------5-|
E|-4--7-----------7---4--7-----------7---5-|

Final Riff 1
e|-----------------------------------------|
B|-----------------------------------------|
G|--6---6-------4---6----6---6-------7---5-|
D|--7---7-------5---7----7---7-------7---5-|
A|--7---7-------5---7----7---7-------5---3-|
E|--5---5---0---3---5----5---5---0---------|
[ Tab from: http://www.guitartabs.cc/tabs/0-9/311/unity_tab_ver_3.html ]
e|----------------------------------------|
B|----------------------------------------|
G|--6---6-------4---6----6--6--6--2--2--2-|
D|--7---7-------5---7----7--7--7--3--3--3-|
A|--7---7-------5---7----7--7--7--3--3--3-|
E|--5---5---0---3---5----5--5--5--1--1--1-|

e|-----------------------------------------|
B|-----------------------------------------|
G|--6---6-------4---6----6---6-------7---5-|
D|--7---7-------5---7----7---7-------7---5-|
A|--7---7-------5---7----7---7-------5---3-|
E|--5---5---0---3---5----5---5---0---------|

e|-------------------------------------------x-----------x---------|
B|-------------------------------------------x-----------x---------|
G|--6---6-------4---6----6---6-------2---4---x---2---4---x---2---4-|
D|--7---7-------5---7----7---7-------3---5---x---3---5---x---3---5-|
A|--7---7-------5---7----7---7-------3---5---x---3---5---x---3---5-|
E|--5---5---0---3---5----5---5---0---1---3---x---1---3---x---1---3-|

Final Riff 2                              "i'll say thats it"
e|-----------------------------------------------------------------|
B|-----------------------------------------------------------------|
G|-----------------------------------------------------------------|
D|-2-2-2-2-9-9-9-9-6-6-6-6-7-6-6-6-2-2-2-2-9-9-9-9-6-6-6-6-7--rest-|
A|-2-2-2-2-9-9-9-9-6-6-6-6-7-6-6-6-2-2-2-2-9-9-9-9-6-6-6-6-7-------|
E|-0-0-0-0-7-7-7-7-4-4-4-4-5-4-4-4-0-0-0-0-7-7-7-7-4-4-4-4-5-------|
PM.................................................................
e|-----------------------------------------------------------------|
B|-----------------------------------------------------------------|
G|-----------------------------------------------------------------|
D|-2-2-2-2-9-9-9-9-6-6-6-6-7-6-6-6-2-2-2-2-9-9-9-9-6-6-6-6-7-6-6-6-|
A|-2-2-2-2-9-9-9-9-6-6-6-6-7-6-6-6-2-2-2-2-9-9-9-9-6-6-6-6-7-6-6-6-|
E|-0-0-0-0-7-7-7-7-4-4-4-4-5-4-4-4-0-0-0-0-7-7-7-7-4-4-4-4-5-4-4-4-|
PM.................................................................

e|-----------------------------------------------------------------|
B|-----------------------------------------------------------------|
G|-1-1-1-1-8-8-8-8-5-5-5-5-6-5-5-5-1-1-1-1-8-8-8-8-5-5-5-5-6-5-5-5-|
D|-2-2-2-2-9-9-9-9-6-6-6-6-7-6-6-6-2-2-2-2-9-9-9-9-6-6-6-6-7-6-6-6-|
A|-2-2-2-2-9-9-9-9-6-6-6-6-7-6-6-6-2-2-2-2-9-9-9-9-6-6-6-6-7-6-6-6-|
E|-0-0-0-0-7-7-7-7-4-4-4-4-5-4-4-4-0-0-0-0-7-7-7-7-4-4-4-4-5-4-4-4-|

e|---------------------------------------------------------------------|
B|---------------------------------------------------------------------|
G|-1-1-1-1-8-8-8-8-5-5-5-5-6-5-5-5-1-1-1-1-8-8-8-8-5-5-5-6-6-6-5-5-5---|
D|-2-2-2-2-9-9-9-9-6-6-6-6-7-6-6-6-2-2-2-2-9-9-9-9-6-6-6-7-7-7-6-6-6-2-|
A|-2-2-2-2-9-9-9-9-6-6-6-6-7-6-6-6-2-2-2-2-9-9-9-9-6-6-6-7-7-7-6-6-6-2-|
E|-0-0-0-0-7-7-7-7-4-4-4-4-5-4-4-4-0-0-0-0-7-7-7-7-4-4-4-5-5-5-4-4-4-0-|

LYRICS

Riff 1 x3
Even if I cared to try I, I couldn't please them
Their petty complaints stupid restraints ain't gonna work
It's all to cheese and
Regret, don't fret, just push it away
And say I'm like the wind, relentless and irritating
A position that I think worth stating
Riff 2 x1
Swing I'm doin' my thing
Groove I'm showin' and provin'
That maverick deal that makes you feel ill
It runs in my family
Fussin' and cussin' and bitchin' and kickin'
If you ask me I think that you're just chicken to try
If you don't wan't no bit
Remember I said it one day you'll regret it
Riff 3 x1
Oh god I can't believe it
You have asked and so you shall receive it in the ear
Victory draws near but no fear my dear
I'll be here another year, thats right
Riff 1 x3
What's it all about I scan a new plan for the next year in
Nineties try these you wanna just bust out
I cool out and I'm done bein' mad
To just know hate well that's so sad what a life, strife
Backfire in your face know your place come off like
Riff 2 x1
Word they come like a heard but they said
We'd drop like a lead zeppelin in your face
But that's nothin' hometeam
I ain't got to my ace in the whole yet, bet that I will
Get my fill, get my thrill we'll
Be back one day and we'll try not to spite
But until then you stay out of my sight
Riff 3 x1
Oh god I can't believe it this grooves so dope
I'm about to have a fit and here's a flash
I freaked so hard I got whiplash
And when it comes to writing stay away from our stash, come on
Riff 4 x1

Final Riff 1 x1
Swing I'm doin' my thing
Groove I'm showin' and provin'
That maverick deal that makes you feel ill
It runs in our family
Steppin' and goin' and lyin' and cryin'
My brain is on fire it feels like I'm flying through space
Yes, doing my best but It'll get better this much I confess
Final Riff 2 x1
Oh god I can't believe it but when this era's through
I'll say that's it
Edification will take place pull up the reigns
And get out of the race
My bros is down for the unity
311 is down for the unity
Unanimity of the unity
Comments