311 - Uncalm Chords & Tabs

 

Uncalm Chords & Tabs

311 Chords & Tabs

Version: 1 Type: Tab 0 ratings
1 star 2 stars 3 stars 4 stars 5 stars
comments

Uncalm Tab

"Uncalm" by 311 off the album, "From Chaos"
Music written by N. Hexum & T. Mahoney
Lyrics written by N. Hexum & D. Martinez 

tabbed by Mel Annis (MeL5820@aol.com) (AIM: MiZeLL311)
e-mail/IM me if ya got any changes...this is my first tab & it's pretty easy but whatever ya got for me would help me out! have fun with this song - much love to my 311 people! 

Tuning : Standard 

Song Structure:
Intro
Riff 1
Riff 2
Chorus
Riff 1
Riff 2
Chorus
Outro


Intro/Outro (x3) (use distortion throughout the whole song)
e  ---------------------------------------------------------------
B ---------------------------------------------------------------
G ---------------------------------------------------------------
D ---------------------------------------------------------------
A --------------2-3-2----2----------------------2-3------------
E --2-4-5-7-0---------0----0-------2-4-5-7-0-------0-2-------

[ Tab from: http://www.guitartabs.cc/tabs/0-9/311/uncalm_tab.html ]
Riff 1 (x4) 
e  ---------------------------------------------------------------
B ---------------------------------------------------------------
G -------------------6-6----------------------------------------
D --7-7-7-7-7-7-7-------7-7-7-7-7-7-7-6-6-------------------
A ---------------------------------------------------------------
E ---------------------------------------------------------------

Riff 2 (x4)
e  ---------------------------------------------------------------
B ---------------------------------------------------------------
G ---------------------------------------------------------------
D ---------------------------------------------------------------
A --0-0-0-0-0-0-0-4-4---0-0-0-0-0-0-0----------------------
E ------------------------------------------4-4-----------------

Chorus (x6?)
e -------------------------------------------------------
B -------------------------------------------------------
G  -------------------------------------------------------
D -------------------------------------------------------
A --4-4-4-0---------------------------------------------
E ------------4---(three times then...)---4-2-4-5-4-2-4-
Comments