311 - Uncalm Chords & Tabs

 

Uncalm Chords & Tabs

311 Chords & Tabs

Version: 1 Type: Bass Tab 0 ratings
1 star 2 stars 3 stars 4 stars 5 stars
comments

Uncalm Bass Tab

Song:Uncalm

Band:311

Album:From Chaos

Music By:

Lyrics:

Tabber:T4-TURBO

Main Riff:
g:--------------------------------------|
d:--------------------------------------|
a:--------------------------------------|
e:2-2--5-0--0-0--0---0--2-2--5-0--0-0--2|
b:-----------------0--------------------|

2nd Riff:
g:--------6-6------------|
d:7777777-----7777777-6-6|
a:-----------------------|
e:-----------------------|
b:-----------------------|
[ Tab from: http://www.guitartabs.cc/tabs/0-9/311/uncalm_btab.html ]
3rd Riff:
g:-----------------------|
d:-----------------------|
a:--------4-4------------|
e:5555555-----5555555-4-4|
b:-----------------------|

Fill:
g:-------|
d:-------|
a:-------|
e:-------|
b:---0---|

Riff 4:
g:------------------------------------------------|
d:------------------------------------------------|
a:(4)-4-4-4-----4-4-4-----4-4-4-------------------|
e:----------5-4-------5-4-------5-4--4-2-4-5-4-2-4|
b:------------------------------------------------|

Thats All Folks.
Comments