311 - Transistor Chords & Tabs

 

Transistor Chords & Tabs

311 Chords & Tabs

Version: 1 Type: Bass Tab 0 ratings
1 star 2 stars 3 stars 4 stars 5 stars
comments

Transistor Bass Tab

'Transistor' -- Bass Tab
Performed by 311
From the album "Transistor" on Capricorn/Mercury Records
Music by:  C. Sexton & N. Hexum
Lyrics by:  D. Martinez & N. Hexum
(c) 1997 Allegiance Music/Hydroponic Music BMI
---------------
Tabbed by: Daniel Gerrity (HIPSTERDUFUS@msn.com)
The 311 Guitar Archive - http://chromosome.colorado.edu/311archive/Home.html

Intro:
======

|-----------------------------------------|
|-----------------------------------------|
|-----------------------------------------|
|-0223-5-22-0-5205---0223-5-22-0-520520-0-|


Verse:
======

|---------------------------------------------|
|---------------------------------------------|
|------------------------------------------55-|
|-520-520-00--520-520-00--520-520-00-5205-----|


Chorus:
=======
[ Tab from: http://www.guitartabs.cc/tabs/0-9/311/transistor_btab.html ]
|------------------------------------------------|
|------------------------------------------------|
|------------------------------------------------|
|-44444-44-6-4-2----2222--44444-44-6-4-2----2222-|


Post-Chorus:
============

|--------------------------|
|--------------------------|
|--------------------------|
|-3-333333-0-5-333333--757-|


Bridge:
=======

|---------------------------------------------------|
|---------------------------------------------------|
|------75-------75---------------------75--------75-|
|-333------333------3375---333----333------3375-----|


Reggae Part:
============

|------------------------------------------|
|------------------------------------------|
|------33--------------------33------------|
|-33--------11----11----33--------11----11-|


Ending:
=======

|-----------------------------------------|
|-----------------------------------------|
|------3-3------------------3-3-----------|
|-3-3-------1-1--1-1---3-3-------1-1--1-1-|


== Last Updated:  July 14, 1997 ==

Comments