311 - Today My Love Chords & Tabs

 

Today My Love Chords & Tabs

311 Chords & Tabs

Version: 3 Type: Bass Tab

Today My Love Bass Tab

   
Artist: 311
Song: Today My Love (New Mix)
Album: Omaha Sessions (1998)
Bassist: P-Nut
Tuning: B-E-A-D-G 
Notes: 

S - Slap
P - Pop
/ - Slide Up
\ - Slide Down
x - Mute Note
h - Hammer-On
p - Pull-Off


Intro:
G|----------------------------------------------|
D|----------------------------------------------|
A|----------------------------------------------|
E|--2--2-2--4--2-2--2--4--2-2--2--4--2-2--2--4--|
B|----------------------------------------------| (x2)



Verse 1:
G|-----------------12/13-13--13\-----------------|
D|-----------------11/12-12--12\-----------------|
A|-----------------------------------------------|
E|-----------------------------------------------|
B|-4-4-4-4-4-4--4--------------4-4-4-4-4-4-4--4/-|
   S S S S S S  S              S S S S S S S  S                       
 
G|--------------------------------------------------|
D|--------------------------------------------------|
A|--------------------------------------------------|
E|------------------3-2--1--------------------------|
B|-4-4-4-4-4-4--4-----------4-4-4-4/16-16-16-16--16-|
   S S S S S S  S   S S  S  S S S S S  S  S  S   S

G|--------------------------------------------------------------|
D|--------------------------------------------------------------|
A|----6-4-------4-6---6-4-------4-6---6-4-------4-6----9-----8--|
E|--------6-4-6-----------6-4-6-----------6-4-6-----------------|
B|--4---------------4---------------4---------------7-7---6-6---| (x2)

G|--------------------12/13-13--13\-------------------|
D|--------------------11/12-12--12\-------------------|
A|----------------------------------------------------|
E|------/11-11-11--11---------------------------------|
B|-4-4-4----------------------------4-4-4-4-4-4-4--4/-|
   S S S S  S  S   S                S S S S S S S  S                   

G|--------------------------------------------------|
D|--------------------------------------------------|
A|--------------------------------------------------|
E|------------------3-2--1--------------------------|
B|-4-4-4-4-4-4--4-----------4-4-4-4/16-16-16-16--16-|
   S S S S S S  S   S S  S  S S S S S  S  S  S   S

G|--------------------------------------------------------------|
D|--------------------------------------------------------------|
A|----6-4-------4-6---6-4-------4-6---6-4-------4-6-------------|
E|--------6-4-6-----------6-4-6-----------6-4-6---------/12\----|
B|--4---------------4---------------4---------------------------|

G|--------------------------------------------------------------|
D|--------------------------------------------------------------|
A|----6-4-------4-6---6-4-------4-6---6-4-------4-6----9-----8--|
E|--------6-4-6-----------6-4-6-----------6-4-6-----------------|
B|--4---------------4---------------4---------------7-7---6-6---|



Chorus: "Today my love, we shall let the world slide"
G|--------------------------------------------|
D|--------------------------------------------|
A|--------------------------------------------|
E|-4---6--4---6---4--6---6---4--6---6---4--6--|
B|--------------------------------------------| (x2)
[ Tab from: http://www.guitartabs.cc/tabs/0-9/311/today_my_love_btab_ver_3.html ]
G|------------------------------------------------------------------------|
D|------6------------8------6------------8------6------------8------6-----|
A|----6---6--6-----8------6---6--6-----8------6---6--6-----8------6---6---|
E|--4------4--4--6------4------4--4--6------4------4--4--6------4------4--|
B|------------------------------------------------------------------------| 


Intro:
G|----------------------------------------------|
D|----------------------------------------------|
A|----------------------------------------------|
E|--2--2-2--4--2-2--2--4--2-2--2--4--2-2--2--4--|
B|----------------------------------------------| (x2)



Verse 2:
G|--------------------12/13-13--13\-------------------|
D|--------------------11/12-12--12\-------------------|
A|----------------------------------------------------|
E|------/11-11-11--11---------------------------------|
B|-4-4-4----------------------------4-4-4-4-4-4-4--4/-|
   S S S S  S  S   S                S S S S S S S  S                   

G|--------------------------------------------------|
D|-----------------------3--------------------------|
A|--------------------------------------------------|
E|------------------3-2-----------------------------|
B|-4-4-4-4-4-4--4-----------4-4-4-4/16-16-16-16--16-|
   S S S S S S  S   S S  P  S S S S S  S  S  S   

G|--------------------------------------------------------------|
D|--------------------------------------------------------------|
A|----6-4-------4-6---6-4-------4-6---6-4-------4-6-------------|
E|--------6-4-6-----------6-4-6-----------6-4-6---------/12\----|
B|--4---------------4---------------4---------------------------|

G|--------------------------------------------------------------|
D|--------------------------------------------------------------|
A|----6-4-------4-6---6-4-------4-6---6-4-------4-6----9-----8--|
E|--------6-4-6-----------6-4-6-----------6-4-6-----------------|
B|--4---------------4---------------4---------------7-7---6-6---|




Chorus: "Today my love, we shall let the world slide"
G|--------------------------------------------|
D|--------------------------------------------|
A|--------------------------------------------|
E|-4---6--4---6---4--6---6---4--6---6---4--6--|
B|--------------------------------------------| (x2)

G|------------------------------------------------------------------------|
D|------6------------8------6------------8------6------------8------6-----|
A|----6---6--6-----8------6---6--6-----8------6---6--6-----8------6---6---|
E|--4------4--4--6------4------4--4--6------4------4--4--6------4------4--|
B|------------------------------------------------------------------------| 



Outro:
G|--------------------------------------------------------------|
D|--------------------------------------------------------------|
A|----6-4-------4-6---6-4-------4-6---6-4-------4-6----9-----8--|
E|--------6-4-6-----------6-4-6-----------6-4-6-----------------|
B|--4---------------4---------------4---------------7-7---6-6---|

G|-------------------------------------------------------------------|
D|-------------------------------------------------------------------|
A|----6-4-------4-6---6-4-------4-6---6-4-------4-6------------------|
E|--------6-4-6-----------6-4-6-----------6-4-6----------------------|
B|--4---------------4---------------4---------------7-7-7-7-6-6-6-6--|

End on:
G|--------|
D|--------|
A|--6-----|
E|--------|
B|--------|
    P