311 - Sweet Chords & Tabs

 

Sweet Chords & Tabs

311 Chords & Tabs

Version: 2 Type: Bass Tab 0 ratings
1 star 2 stars 3 stars 4 stars 5 stars
comments

Sweet Bass Tab

'Sweet' -- Bass Tab
Performed by 311
From the album "311" on Capricorn Records
Music by:  T. Mahoney
Lyrics by:  N. Hexum & D. Martinez
(c) 1995 Allegiance Music/Hydroponic Music BMI
---------------
Tabbed by: Chris McCoy (misterkite@msn.com)
The 311 Guitar Archive - http://chromosome.colorado.edu/311archive/Home.html

You either play this with 5 string or If you're like most 311 fans on
   your four string. You can Drop D (Just add 2 to every 4th string note)
   this makes it nearly impossible to play the song quickly however. ;)


Bass Intro (Picked and Muted):
==============================

1:-----------------
2:-----------------
3:---0-0-0-4-0-4-5-
4:-4---------------

Verse (Simile):
===============
[ Tab from: http://www.guitartabs.cc/tabs/0-9/311/sweet_btab_ver_2.html ]
1:---------------------------
2:---------0-----------------
3:-----------2-0-0-0-4-0-4-5-
4:-0-0-0-0-------------------

Pre-Chorus:
===========

1:---------------------
2:---------------------
3:-------------0-0-0-0-
4:---0-0-0-0-4---------
5:-4-------------------

  "If you don't have a 5th string, skip that note"

Chorus:
=======

1:-------------1-----------------------------------
2:-----------0---4-2-0---0-------------------------
3:-------0-2-----------4---4-2-4-0-0-4-0-0-5-4-0---
4:---0-4-----------------------------------------3-
5:-3-----------------------------------------------

  "If you don't have a 5th string, skip that note"

Song Layout:
============
Intro
Verse (x8)
Pre-Chorus (x4)
Chorus (x4)
Verse (x4)
Pre-Chorus (x4)
Chorus (x4)
Pre-Chorus Variation (Slightly different rhythm) (x4)
Verse (x4)
Chorus (x4)


== Last Updated:  July 17, 1997 ==
Comments