311 - Summer Of Love Chords & Tabs

 

Summer Of Love Chords & Tabs

311 Chords & Tabs

Version: 1 Type: Bass Tab 0 ratings
1 star 2 stars 3 stars 4 stars 5 stars
comments

Summer Of Love Bass Tab

   
'Summer of Love' -- Bass Tab
Performed by 311
From the album "Unity" on What Have You Records
Lyrics by: N. Hexum
Music by: N. Hexum
(c) 1991 Allegiance Music/Hydroponic Music BMI
---------------
Tabbed by: Justin Reynolds (ChAoSHeX@juno.com)
The 311 Guitar Archive -- http://chromosome.colorado.edu/311archive/Home.html

For these chords, simply pluck the D sting and slap the A string....

Riff 1:
=======

G:---------------------------------------------------
D:---------------------------------------------------
A:------------------5-5-5-5-5-5-5-5------------------
E:-2-2-2-2-2-2-2-2-------------------2-2-2-2-2-2-2-2-

G:----------------
D:-7---6---7---9\-
A:-5---4---5---7\-
E:----------------

[ Tab from: http://www.guitartabs.cc/tabs/0-9/311/summer_of_love_btab.html ]
Riff 2:
=======

G:---------------------------------------------------
D:---------------------------------------------------
A:------------------5-5-5-5-5-5-5-5------------------
E:-2-2-2-2-2-2-2-2---------------------2-----4-----7-


Riff 3:
=======

G:------------------------
D:----------------(7---9)-
A:----------------(5---7)-
E:-2----4----7------------

(Play parenthesis every other time)


Riff 4:
=======

G:-----------
D:-2-2-2-2-4-
A:------x----
E:-----------



Song Structure:
============
Riff 1 - (1x)
Riff 2 - (1x)
Riff 3 - (9x)
Riff 1 - (2x)
Riff 2 - (2x)
Riff 3 - (16x)
Riff 1 - (1x)
Riff 2 - (1x)
Riff 3 - (6x)
Riff 4 - (24x)
Riff 3 - (12x)


== Last Updated:  September 25, 1997 ==
Comments