311 - Sometimes Jacks Rule The Realm Chords & Tabs

 

Sometimes Jacks Rule The Realm Chords & Tabs

311 Chords & Tabs

Version: 4 Type: Tab

Sometimes Jacks Rule The Realm Tab

   
Artist: 311
Song: Sometimes Jacks Rule the Realm
Album: Evolver (2004)
Bassist: P-Nut
Tuning: B-E-A-D-G


Verse 1:
G|----------------------------------------------------------------------------------|
D|----------------------------------------------------------------------------------|
A|--------------------------5-5--5-5--5-5-5-5----3-3--3-3--3-3-3-3------------------|
E|--0--0-0--0-0--0-0-0-0-------------------------------------------2--2-2--2--2--1--|
B|-----------------------3--------------------1-------------------------------------| (x2)


Break:
G|-----------------------------------------------|
D|-----------------------------------------------|
A|---------------------5-7-5---5-5--5-5--5-5--5--|
E|--0--0-0--0-0--0-5-7-------7-------------------|
B|-----------------------------------------------|

G|--------------------------------------------------------|
D|--------------------------------------------------------|
A|------5-7-5---3-3--3-3--3-3--3-3-3-3-1---1---1---1---1--|
E|--5-7-------7--------------------------2---2---2---1----|
B|--------------------------------------------------------|

G|-----------------------------------------------|
D|-----------------------------------------------|
A|---------------------5-7-5---5-5--5-5--5-5--5--|
E|--0--0-0--0-0--0-5-7-------7-------------------|
B|-----------------------------------------------|

G|---------------------------------------------------------|
D|---------------------------------------------------------|
A|------5-7-5---3-3--3-3--3-3--3-3-3-3-1---1---1---1-------|
E|--5-7-------7--------------------------2---2---2---1--0--|
B|---------------------------------------------------------|


Verse 2:
G|-------------------------------------------|
D|-------------------------------------------|
A|---------------------5--5-5--5-5--5-5-5-5--|
E|--0--0-0--0-0--0-0-0-----------------------|
B|-------------------------------------------|

G|----------------------------------------------|
D|----------------------------------------------|
A|----------------------------------------------|
E|--5--5-5--5-5--5-5-5-5--2--2-2--2-2--2-2-2-2--|
B|----------------------------------------------|
[ Tab from: http://www.guitartabs.cc/tabs/0-9/311/sometimes_jacks_rule_the_realm_tab_ver_4.html ]
G|----------------------------------------------|
D|----------------------------------------------|
A|----------------------------------------------|
E|--7--7-7--7-7--7-7-7-7--5--5-5--5-5--5-5-5-5--|
B|----------------------------------------------|

G|----------------------------------------|
D|----------------------------------------|
A|----------------------------------------|
E|--2--2-2--2-2--2-2-2-2---------2~///24--|
B|--------------------------0-------------|



Interlude:
G|----------------------|
D|----------------------|
A|----------------------|
E|--1--1-0--0-5--5-5-5--|
B|----------------------| (x4)

G|-------------|
D|-------------|
A|-------------|
E|--1---3---5--|
B|-------------| (x7)

Rest 1 bar

G|-------------|
D|-------------|
A|-------------|
E|--1---3---5--|
B|-------------| (x3)

G|--------------|
D|--------------|
A|--------------|
E|--1---3---5~--|
B|--------------|



Chorus:
G|--------------------------------------|
D|---------------------3-2-0---0-3-2-0--|
A|---------------------------3----------|
E|---------------1--1-------------------|
B|--1--1--1-1--1------------------------| (x2)


Guitar Solo:
G|------------------------------------------------|
D|-------------------------------3-3-2-0---0-2-0--|
A|-------3----3-----3-3---3--------------3--------|
E|--------------------------1--1------------------|
B|--1--1----1---1-1-----1-------------------------|

G|------------------------------------------------|
D|-------------------------------3-3-2-0---0-2----|
A|-------3----3-----3-3---3--------------3-----3--|
E|--------------------------1--1------------------|
B|--1--1----1---1-1-----1-------------------------|


Interlude:
G|-------------------------------------------|
D|-------------------------------------------|
A|-------------------------------------------|
E|----------------------1-1--1--1--1--1---1--|
B|--1-1--1--1--1--1---1----------------------| (x6)


Outro:
G|-------------------------------------------|
D|--------------------------3-------3--------|
A|------3-----3------------------------------|
E|----------------------1-1--1--1--1--1-1-1--|
B|--1-1--1--1--1--1-1-1----------------------|

G|-------------------------------------------|
D|-------------------------------------------|
A|-------------------------------------------|
E|----------------------1-1--1--1--1--1-1-1--|
B|--1-1--1--1--1--1-1-1----------------------| (x3)

G|------|
D|------|
A|------|
E|------|
B|--1~--|