311 - Sometimes Jacks Rule The Realm Chords & Tabs

 

Sometimes Jacks Rule The Realm Chords & Tabs

311 Chords & Tabs

Version: 3 Type: Tab 0 ratings
1 star 2 stars 3 stars 4 stars 5 stars
comments

Sometimes Jacks Rule The Realm Tab

Artist:311
Song: Sometimes Jacks Rule the Realm
Album: Evolver

~!~ yea i tabbed the other one too but I wanted to add that there might be a few
errors on this so if anyone sees any feel free to correct it! I'd be happy cuz I
wana kno the correct way to play it too :) e-mail me if you'd like to let me know kikicava02@hotmail.com



*~** ENDING **~* this can be heard about a minute after the song ends

Ok this part is finger plucked, and after playing Riff 1 and 2 repeat them , as noted.

Riff 1
E|----------------------------------------------------------------||
B|------1-------1-------------------------1-------1---------------||
G|-----------------------0-0h2p0---------------------------0---2--||
D|---2-------0---------2---------2-----2-------0---------2---2----||
A|-3-------2------0------------------3-------2-------0------------||
E|----------------------------------------------------------------||

Riff 2
[ Tab from: http://www.guitartabs.cc/tabs/0-9/311/sometimes_jacks_rule_the_realm_tab_ver_3.html ]
E|-----------------------------------------------------------------| |
B|------1-3-11p0--------------------------------------------------|.|
G|----------------2p0-----------2-0--------------------------------| |
D|---2----------------2-2/3-----------0-2-2p3-3-2-2----------------|.|
A|-3------------------------\3------0----------------0-2-3---------| |
E|-----------------------------------------------------------------| |

(*note* play the A and D strings real quickly here with a lot of emphasis on the -1-3-1 on the B string)


Riff 3

E|-----------------------------------------------------------------||
B|------1-------1------------1---------1---------------------------||
G|--------------------------------------------2-0------------------||
D|---2-------0------------2---------0-------------0-2-2/3-3--------||
A|-3-------2-------0----3---------2-------0------------------------||
E|-----------------------------------------------------------------||

E|-----------------------------------------------------------------||
B|------1--------1---------1----------0----------------------------||
G|-------------------------------0----0----------------------------||
D|---2--------0----------------------------------------------------||
A|-3--------2--------0-----3-----3---------------------------------||
E|-----------------------------------------------------------------||

order to play:
Riff 1
Riff 2
Riff 1
Riff 2
Riff 3
Comments