311 - Slinky Chords & Tabs

 

Slinky Chords & Tabs

311 Chords & Tabs

Version: 2 Type: Bass Tab 0 ratings
1 star 2 stars 3 stars 4 stars 5 stars
comments

Slinky Bass Tab

   
'Slinky' -- Bass Tab
Performed by 311
From the album "Unity" on What Have You? Records
Music by:  N. Hexum
Lyrics by:  N. Hexum
(c) 1991 Allegiance Music/Hydroponic Music BMI
---------------
Tabbed by: Justin Reynolds (iLLiHeXiLL@aol.com)
The 311 Guitar Archive -- http://chromosome.colorado.edu/311archive/Home.html

* [B] - bend...Some of the slapping is hard to hear but I think I got
  it...and you might tune the bass down a full step [ E to D ] *

Intro:
======

G:--------------
D:------3--5--3-
A:-3--5---------
E:--------------


Fill:
=====

G:---------
D:---------
A:-4-3-4-3-
E:---------


Riff 1:
=======
[ Tab from: http://www.guitartabs.cc/tabs/0-9/311/slinky_btab_ver_2.html ]
G:-------------
D:-------------
A:-3-5-3-5--3b-
E:-------------


Riff 2:
=======

G:---------------
D:--------3-3----
A:-3-3--5-----3b-
E:---------------


Riff 3 [slap]:
==============

G:-----6-
D:---7---
A:-5-----
E:-------


Chorus:
=======

G:-----------
D:-----------
A:-3-3////-7-
E:-----------


Bridge:
=======

G:------------
D:-3-3-2------
A:--------5h3-
E:------------


'Breakdown' part [slap]:
========================

G:---------9-9-
D:------7------
A:-5-5---------
E:-------------


Guitar Solo:
============

G:---------
D:---------
A:-3-5-3-5-
E:---------


== Last Updated:  January 8, 1998 ==
Comments