311 - Six Chords & Tabs

 

Six Chords & Tabs

311 Chords & Tabs

Version: 1 Type: Tab 0 ratings
1 star 2 stars 3 stars 4 stars 5 stars
comments

Six Tab

#-----------------------------------------------------------------------------# 
#-- File created with Instab - http://www.pconline.com/~smcarey/instab.html --# 
#-----------------------------------------------------------------------------# 

Author/Artist: 311 
Title: six 
Album: grass roots 
Transcribed by: Twertle 
Email: independant_skater311@hotmail.com 

If you have any comments or whatever email me 
[ Tab from: http://www.guitartabs.cc/tabs/0-9/311/six_tab.html ]
------------------------------------------------------------------------------ 
------------------------------------------------------------------------------ 
------------------------------------------------------------------------------ 
------------------------------------------------------------------------------ 
----2-3---2-3---1-2-1--------------------------------------------------------- 
-0------0-----0--------------------------------------------------------------- 
                                         play this lots of times               

------------------------------------------------------------------------------ 
------------------------------------------------------------------------------ 
------------------------------------------------------------------------------ 
------------------------------------------------------------------------------ 
--3-4-4-5-5-4-4-3------------------------------------------------------------- 
--3-4-4-5-5-4-4-3------------------------------------------------------------- 
                                                                               
Comments