311 - Silver Chords & Tabs

 

Silver Chords & Tabs

311 Chords & Tabs

Version: 1 Type: Tab 0 ratings
1 star 2 stars 3 stars 4 stars 5 stars
comments

Silver Tab

   
311 - Silver
Tabbed By: rob
EMail: lbc311sk8er@msn.com
Grassroots

Riff 1:
=======
   N.C.
1:-----------------------
2:-----------------------
3:-----------------------
4:-----------------------
5:--------2--------4h5p4-
6:-4-4-4-----2--2--------

- or -

   N.C.
1:-----------------------
2:-----------------------
3:-----------------------
4:-----------------------
5:-----------------4h5p4-
6:-4-4-4//7\\2--2--------

Riff 2:
=======
   N.C.
1:-------------------------------------------
2:-------------------------------------------
3:-------------------------------------------
4:-------------------------------------------
5:-4-2-4-2-4-----1-------4-2-4-2-4------1--4-
6:------------4-----2----------------4-------

   N.C.
1:--------------------------------------------
2:--------------------------------------------
3:--------------------------------------------
4:--------------------------------------------
5:-4-2-4-2-4------1-------4-2-4-2-4--5--2-----
6:-------------4-----2----------------------3-

Riff 3:
=======
   F5   E5 F5         E5 F5         E5  F5     G5  
1:------------------------------------------------
2:------------------------------------------------
3:------------------------------------------------
4:------------------------------------------------
5:-3--3/2--3-3---3--3/2--3-3---3--3/2---3-3--3/5--
6:-1--1/0--1-1---1--1/0--1-1---1--1/0---1-1--1/3--
[...Then repeat it w/ a few extras]

Fill 1:
=======
   N.C.
1:---------------------
2:---------------------
3:---------------------
4:-1-2-1---------------
5:-------2-------4-5-4-
6:---------2--2--------

Riff 4:
=======
   N.C.
1:---------------------------------------------
2:---------------------------------------------
3:---------------------------------------------
4:---------------------------------------------
5:----------------------------------->>>-------
6:-0-0-7-0-10-0-7-0-5-7-0-7-0-5-0-7-0-5-7-0-10-
[ Tab from: http://www.guitartabs.cc/tabs/0-9/311/silver_tab.html ]
  NOTE: I'm finding it hard to tab beyond >>>: it gets confusing trying to
	play it slow and write down the numbers but you have the idea.
	It's real hard to play at first (i.e. don't try it on an acoustic)
	but once you get the rhythm it's easy.  The best thing to do would
	be to play along with the song because it would be hard to do it 
	from tab alone without the rhythm.  After I figured this out, I 
	saw Tim play it in concert and instead of playing it like this:
	
	6:-0-0-7-0-10...... 
	(10th fret, 6th string)
	
	He played:
	5:---------5-
	6:-0-0-7-0---....
	(5th fret, 5th string)

	which is the same note, but I find it too hard to switch strings.
			-- Greg Parr (gparr@tiger.lsuiss.ocs.lsu.edu)

 - or -

   N.C.
1:-----------------------------
2:-----------------------------
3:-----------------------------
4:-----------------------------
5:-------5---------------------
6:-0-7-0---0-7-0-5-7-0-7-0-5-7-

Final (without Octaver):
========================
   A5   G5    A5   G5  Bb5  A5   G5    A5   G5  Bb5
1:--------------------------------------------------
2:--------------------------------------------------
3:--------------------------------------------------
4:--------------------------------------------------
5:-7-7--5-5---7-7--5---8-8--7-7--5-5---7-7--5---8-8-
6:-5-5--3-3---5-5--3---6-6--5-5--3-3---5-5--3---6-6-

   A5   G5 E5  A5   G5 Bb5 A5   G5 E5  A5   G5 Bb5
1:-----------------------------------------------
2:-----------------------------------------------
3:-----------------------------------------------
4:-----------------------------------------------
5:-7-7--5--2---7-7--5--8---7-7--5--2---7-7--5--8-
6:-5-5--3--0---5-5--3--6---5-5--3--0---5-5--3--6-

Ending (without Octaver):
=========================
   D5 C5 Eb5 F5  F#5 G5
1:---------------------
2:---------------------
3:---------------------
4:---------------------
5:-7--5--8---3---4---5-
6:-5--3--6---1---2---3-


submitted by rob byrd
lbc311sk8er@msn.com
Comments