311 - Sick Tight Chords & Tabs

 

Sick Tight Chords & Tabs

311 Chords & Tabs

Version: 2 Type: Tab 0 ratings
1 star 2 stars 3 stars 4 stars 5 stars
comments

Sick Tight Tab

  Sick Tight by 311

  (Bass Intro)

   Verse Riff
 e-----------------------------------
 B-----------------------------------
 G-----------------------------------
 D------------------------6-6-9-8-8--
 A----------4----------4--4-4-7-6-6--
 E--2-4-0-2-4--2-4-0-2-4--4-4-7-6-6--
 
   Second part of Verse 

      N.H.          N.H.          N.H.          N.H.(Slide harmonics up neck)
 e-------------------------------------------------------------------
 B-------------------------------------------------------------------
 G-------------------------------------------------------------------
 D--6-------6-6-9-6-------6-6-9-6-------6-6-9-6----------------------
 A--4-------4-4-7-4-------4-4-7-4-------4-4-7-4----------------------
 E--4--4-4--4-4-7-4--4-4--4-4-7-4--4-4--4-4-7-4--4-4-3-3-2.6-2.6-2-2-
[ Tab from: http://www.guitartabs.cc/tabs/0-9/311/sick_tight_tab_ver_2.html ]
  Pre-Chorus
 e----------
 B----------
 G----------
 D----------
 A--4-6-----
 E------0-4-

  Chorus, Bridge (play with slight P.M. on Chorus, but not on Bridge)
 e--------------------------------------------------
 B--------------------------------------------------
 G--------------------------------------------------
 D--4-4-X-4-5-5-X-5-5-5-X-5-2-2-X-2-X-2-4-4-X-4-X-4-
 A--4-4-X-4-5-5-X-5-5-5-X-5-2-2-X-2-X-2-4-4-X-4-X-4-
 E--2-2-X-2-3-3-X-3-3-3-X-3-0-0-X-0-X-0-2-2-X-2-X-2-

 Outro 
  (play natural harmonics)
 e--------------------------------------------------------------
 B--------------------------------------------------------------
 G--------------------------------------------------------------
 D--------------------------------------------------------------
 A--------------------------------------------------------------
 E--4-4-4-4-4-4-4-5-5-5-5-5-5-5-5-4-4-4-4-4-4-4-5-5-5-5-5-5-5-5-

 That's Sick Tight.
Comments