311 - Secret Track On Evolver Chords & Tabs

 

Secret Track On Evolver Chords & Tabs

311 Chords & Tabs

Version: 2 Type: Bass Tab 0 ratings
1 star 2 stars 3 stars 4 stars 5 stars
comments

Secret Track On Evolver Bass Tab

Song: Hidden Track at the end of  “Sometimes Jacks Rule the Realm”
Album: Evolver
Band: 311

(Standard Tuning) 4-string or 5 or 6 or whatever.

G|---------17-----------17-----------------------------------------------|
D|-----17----------17----------------------17-----17h19p17---------------|
A|-15----------14----------------------19------19--------------19--------|
E|----------------------------17-----------------------------------------|

G|---------17----------17---------------------------------|
D|-----17----------17-------------------17------19--------|
A|-15----------14------------------19------19-------------|
E|---------------------------17---------------------------|

G|---------17-----------17-----------------------------------------------|
D|-----17----------17----------------------17-----17h19p17---------------|
A|-15----------14----------------------19------19--------------19--------|
E|----------------------------17-----------------------------------------|

G|---------17----------17---------------------------------|
D|-----17----------17-------------------17------19--------|
A|-15----------14------------------19------19-------------|
E|---------------------------17---------------------------|

G|---------17-----19-----17---------------17-16--------------------------------|
D|-----17-----17-----17-----17-------------------19--17h19p17------------------|
A|-15----------------------------------14----------------------------19--------|
E|-----------------------------------------------------------------------------|

G|----------------------------------------------------------------|
D|-----19—17------------------------------------------------------|
A|---------------19-19-17-19-19-20-19----12-14-15-----------------|
E|-17-------------------------------------------------------------|

G|---------17-----19-----17---------------17-16--------------------------------|
D|-----17-----17-----17-----17-------------------19--17h19p17------------------|
A|-15----------------------------------14----------------------------19--------|
E|-----------------------------------------------------------------------------|

G|----------------------------------------------------------------|
D|-----19—17------------------------------------------------------|
A|---------------19-19-17-19-19-20-19----12-14-15-----------------|
E|-17-------------------------------------------------------------|

[ Tab from: http://www.guitartabs.cc/tabs/0-9/311/secret_track_on_evolver_btab_ver_2.html ]
G|---------17-----------17-----------------------------------------------|
D|-----17----------17----------------------17-----17h19p17---------------|
A|-15----------14----------------------19------19--------------19--------|
E|----------------------------17-----------------------------------------|

G|---------17----------17---------------------------------|
D|-----17----------17-------------------17------19--------|
A|-15----------14------------------19------19-------------|
E|---------------------------17---------------------------|

G|---------17-----------17-----------------------------------------------|
D|-----17----------17----------------------17-----17h19p17---------------|
A|-15----------14----------------------19------19--------------19--------|
E|----------------------------17-----------------------------------------|

G|---------17----------17---------------------------------|
D|-----17----------17-------------------17------19--------|
A|-15----------14------------------19------19-------------|
E|---------------------------17---------------------------|

G|---------17-----19-----17---------------17-16--------------------------------|
D|-----17-----17-----17-----17-------------------19--17h19p17------------------|
A|-15----------------------------------14----------------------------19--------|
E|-----------------------------------------------------------------------------|

G|----------------------------------------------------------------|
D|-----19—17------------------------------------------------------|
A|---------------19-19-17-19-19-20-19----12-14-15-----------------|
E|-17-------------------------------------------------------------|

G|---------17-----19-----17---------------17-16--------------------------------|
D|-----17-----17-----17-----17-------------------19--17h19p17------------------|
A|-15----------------------------------14----------------------------19--------|
E|-----------------------------------------------------------------------------|

G|----------------------------------------------------------------|
D|-----19—17------------------------------------------------------|
A|---------------19-19-17-19-19-20-19----12-14-15-----------------|
E|-17-------------------------------------------------------------|

Outro:

G|------17-------17-----------17---------17-------------------------------------|
D|---17------17------------17---------17---------19-17--------------------------|
A|15------14-------------15---------14-------------------19-17-19-20-19---------|
E|--------------------17-----------------------17-------------------------------|

Ending Chords:

G|-17-------------16------|
D|---------17-------------|
A|-15-------------14------|
E|---------15-------------|


Tabbed by: Greg Henson.

 Great song if you ask me.  Hope this does it justice.  Comments, questions, or death 
 freesamplesofme@hotmail.com  Thanks for looking at the tab!
Comments