311 - Running Chords & Tabs

 

Running Chords & Tabs

311 Chords & Tabs

Version: 2 Type: Bass Tab 0 ratings
1 star 2 stars 3 stars 4 stars 5 stars
comments

Running Bass Tab

'Running'
Performed by 311
From the album "Transistor" on Capricorn/Mercury Records
Music by:  T. Mahoney
Lyrics by:  D. Martinez
(c) 1997 Hydroponic Music BMI
---------------
Tabbed by: Justin Reynolds (illihexill@aol.com)
The 311 Guitar Archive -- http://chromosome.colorado.edu/311archive/


Riff 1:
=======

G:------------
D:------------
A:-5-4--------
E:-----5--3-5-
B:------------

Riff 2:
=======

G:-----------------------------------
D:-----------------------------------
A:----3-4---3-4----5-4-3---5-4-------
E:-5------5-----5--------5------5--3-
B:-----------------------------------

Riff 3:
=======
[ Tab from: http://www.guitartabs.cc/tabs/0-9/311/running_btab_ver_2.html ]
* For the chorus, Riff 3, it is hard to make out the last few notes, so if
you want to know it that badly, then make a high speed dubbing recording and
it will be much easier to understand, I will try to update this tab when I
get time... *

G:--------------------------------------*-------
D:--------------------------------------*-------  
A:---7////3-3-2-3-2-2-------------------*-3-2-0-   
E:-5------------------3-2-3-3-3---3-3-3-*-------   
B:--------------------------------------*-------

For that riff you play the part before the stars 4x then after than the part
after the stars 1x..

Riff 4:
=======

G:-------------------------
D:-------------------------
A:--------3--------3-2-4-5-
E:-5--3-3---5--3-3---------
B:-------------------------

Comments