311 - Reconsider Everything Chords & Tabs

 

Reconsider Everything Chords & Tabs

311 Chords & Tabs

Version: 2 Type: Tab 0 ratings
1 star 2 stars 3 stars 4 stars 5 stars
comments

Reconsider Everything Tab

"Reconsider Everything"
311

I got this tab from somewhere else.  I didn't come up with it myself, but
I play this version of it, so I will put it up here in case anyone else likes it.

^ = bend the string on that note
h = hammer on


Intro:(Nick's part) listen for strumming
|--------------------------------------------------
|--------------------------------------------------
|--------------------------------------------------
|-7-7-7-7-7--5-5-5-5-5--10-10-10-10-10--9-9-9-9-9--
|-7-7-7-7-7--5-5-5-5-5--10-10-10-10-10--7-7-7-7-7--
|-5-5-5-5-5--3-3-3-3-3---8--8--8--8--8--7-7-7-7-7--

Guitar Riff:(Tim uses wah-wah pedal) listen for strumming
|-5-3-0---------------0-----------5-3-0--------------0-----------------------
|-------3^--------1-3---3^--------------3^-------1-3---3^--------------------
|----------4-0-0-----------4-0-0-----------4-0-0----------4-0-0h2------------
|----------------------------------------------------------------------------
|----------------------------------------------------------------------------
|----------------------------------------------------------------------------
On the last time he goes to 2 one the g string, he plays this

|-----0----------------------------------------------
|-1-3---3^-------------------------------------------
|----------4-----------------------------------------
|------------5-5h7-(and slide down from 7)-----------
|----------------------------------------------------
|----------------------------------------------------
[ Tab from: http://www.guitartabs.cc/tabs/0-9/311/reconsider_everything_tab_ver_2.html ]
Verse: (it's the same as the intro, but palm muted Note: except for when they
stop and the guitar slides down, here are the two sliding down, they slide down
from these notes)
first time ---  ---
           ---  ---
           -9-  -5-
           -9-  -5-
           -7-  -3-
           ---  ---    

Bridge thing: ("how many time can they tell you")
|-0-0-0-0-0-0-0-0--0-0-0-0-0-0-0-0--0-0-0-0-0-0-0-0--0-0-0-------------
|-0-0-0-0-0-0-0-0--0-0-0-0-0-0-0-0--0-0-0-0-0-0-0-0--0-0-0-------------
|-5-5-5-5-5-5-5-5--2-2-2-2-2-2-2-2--5-5-5-5-5-5-5-5--2-2-2-------------
|-5-5-5-5-5-5-5-5--2-2-2-2-2-2-2-2--5-5-5-5-5-5-5-5--2-2-2-5-2---------
|-3-3-3-3-3-3-3-3--0-0-0-0-0-0-0-0--3-3-3-3-3-3-3-3--0-0-0-5-2---------
|----------------------------------------------------------3-0---------

|-0-0-0-0-0-0-0-0--0-0-0-0-0-0-0-0--0-0-0-0-0-0-0-0--0-0-0-0-0-0-0-0-------
|-0-0-0-0-0-0-0-0--0-0-0-0-0-0-0-0--0-0-0-0-0-0-0-0--0-0-0-0-0-0-0-0-------
|-5-5-5-5-5-5-5-5--2-2-2-2-2-2-2-2--5-5-5-5-5-5-5-5--7-7-7-7-9-9-9-9-------
|-5-5-5-5-5-5-5-5--2-2-2-2-2-2-2-2--5-5-5-5-5-5-5-5--7-7-7-7-9-9-9-9-------
|-3-3-3-3-3-3-3-3--0-0-0-0-0-0-0-0--3-3-3-3-3-3-3-3--5-5-5-5-7-7-7-7-------
|--------------------------------------------------------------------------

SA's part: (palm muted)
|---------------------
|---------------------
|---------------------
|---------------------
|-4-4-4-4-4-5-5-5-5-5-
|-2-2-2-2-2-3-3-3-3-3- play this 4 times

The part right after this:
|------------------------------------------------------
|------------------------------------------------------
|------------------------------------------------------
|-4-4-7-7-7-7-7-4-4-2-2-2-2-2-4-4-7-7-7-7-7-4-4-2---4--
|-2-2-5-5-5-5-5-2-2-0-0-0-0-0-2-2-5-5-5-5-5-2-2-0-4-2--
|-------------------------------------------------2----
the last time it does this it doesn't play the last two notes here,
it stays on zero and two, and goes into the intro.
Comments