311 - Purpose Chords & Tabs

 

Purpose Chords & Tabs

311 Chords & Tabs

Version: 1 Type: Bass Tab 0 ratings
1 star 2 stars 3 stars 4 stars 5 stars
comments

Purpose Bass Tab

'Purpose' -- Bass Tab
Performed by 311
From the album "311" on Capricorn Records
Music by:  N. Hexum
Lyrics by:  N. Hexum
(c) 1995 Allegiance Music/Hydroponic Music BMI
---------------
Tabbed by: Jeremy Daw (summit@rideau.net)
The 311 Guitar Archive -- http://chromosome.colorado.edu/311archive/Home.html


Riff 1a:
========
 
G:-----------------------------------------------------
D:-----------------------------------------------------
A:-----------------------------------------------------
E:-0--0-0-----0-2--2-2-----2-4--4-4-----4-2--2-2-----2-
B:--------0-0----------2-2----------4-4----------2-2---


Riff 1b:
========

G:---------------------------------------------
D:---------------------------------------------
A:---------------------------------------------
E:-0--0-0-----0-2--2-2-----2-4--4-4-----4----2-
B:--------0-0----------2-2----------4-4--------


Fill 1:
=======
 
G:-------------------------
D:-------------------------
A:-------------------------
E:-4-4-4---4-----2-2-2---2-
B:-------4-------------2---

[ Tab from: http://www.guitartabs.cc/tabs/0-9/311/purpose_btab.html ]
Riff 2:
=======
 
G:-----------------------------------------------------------
D:-----------------------------------------------------------
A:--------7-7--------7-----------------7-7--------7----------
E:-0--5-7------4-5-7----4-5-7----0-5-7------4-5-7----4-5-7-5-
B:-----------------------------------------------------------


Riff 3:
=======
 
G:------------------------------
D:------------------------------
A:------------------------------
E:-2----5----0----2----5----0-0-
B:------------------------------


Riff 4:
=======
 
G:----------------------------------------------------
D:----------------------------------------------------
A:----------------------------------------------------
E:-2-0-1-2--0-1-2-0-1-2--2-4-5--2-4-5--2-4-5--0-0-0-0-
B:----------------------------------------------------

G:--------------------------------------
D:--------------------------------------
A:--------------------------------------
E:-2-0-1-2--0-1-2-0-1-2----2------------
B:----------------------------2---2---0-


== Last Updated:  September 18, 1997 ==
Comments