311 - Off Beat Bear Ass Chords & Tabs

 

Off Beat Bear Ass Chords & Tabs

311 Chords & Tabs

Version: 1 Type: Bass Tab 0 ratings
1 star 2 stars 3 stars 4 stars 5 stars
comments

Off Beat Bear Ass Bass Tab

   
               Song:Offbeat Bare-Ass
               Band:311
               Tabbed By:Bucko (buco@email.com)
          
             Whoever tabbed this earlier did it completely wrong. Here's how it really goes!
          
          Riff 1:
          
          G:---------------------------------
          D:---------------------------------
          A:---------------------------------
          E:---------------------------------
          B:-0---0---1---1---0---0---1---1---
          
          Riff 2:
          
          G:------------------------------------------------------------------------
          D:-42-------4244----4244----4244----4244----4244----4244----4244----4244--
          A:---420------------------------------------------------------------------
          E:------2022----0122----0122----0122----0122----0122----0122----0122----02
          B:------------------------------------------------------------------------
          
          Riff 3:
          
          G:---------------------------------------------------
          D:---------------------------------------------------
          A:---------------------------------------------------
          E:-00-0-02-3-2----------------------0-0-0--0---0-3---
          B:---------------------------------3------3--3-------
          
          Riff 4:
          
          G:-----------------
          D:-----------------
          A:-----------------
          E:-3--3------------
          B:-------2--22-2-2-
          
          P-Nut's Solo(Slapped)
          
          G:----4-2------22-2h4-----4-2--2-2-----2h4
          D:--------4-2h4---------------4---4-2h4---
          A:-0h2---------------0h2-2----------------
          E:----------------------------------------
          B:----------------------------------------
             T  P P T T  PP P  T   TP P TP PT T  P
          
          
          
          
          
           
====

'Offbeat Bare Ass'
Performed by 311
From the album "Grassroots" on Capricorn Records
Music by:  N. Hexum, C. Sexton & A. Wills
Lyrics by:  N. Hexum & D. Martinez
(c) 1994 Allegiance Music/Hydroponic Music BMI
----------
Tabbed by:  Mike Ulisse (poly@juno.com)
311 Guitar Archive - http://chromosome.colorado.edu/311archive/Home.html


Riff 1 :
========

G:--------------
D:--------------
A:--------------
E:-2--2----3--3-


Riff 2: 
=======

G:------------------
D:----------4-2-4-4-
A:------------------
E:-0-1-2-2----------


Riff 3: 
=======

G:------------------
D:------------------
A:------------------
E:-0-0-0-0--2--3--2-


Riff 4: 
=======

G:--------------------
D:------------------5-
A:-5h7-7-7--5-7-5-7---
E:--------------------


Chorus :
========

G:---------------------
D:---------------------
A:---------------------
E:-3-3--4--4--4--4-4-4-


Riff 5: 
=======

   B5 D5  B5 C5
2:-7--10--7--8-8-8-8-

(I don't know the string this is on so its all you...)


Lyrics/Song Structure:
======================
---> Play Riff 1 (x4)
---> Play Riff 1
---> Play Riff 2
---> Play Riff 3
---> Play Riff 4
---> Play Chorus (x4)
---> Play Riff 1
---> Play Riff 5
---> Play Riff 2
---> Play Chorus (x4)
---> Play Riff 1
---> Play Riff 5
---> Play Riff 2
---> Pl
[ Tab from: http://www.guitartabs.cc/tabs/0-9/311/off_beat_bear_ass_btab.html ]
Comments