311 - Nutsympton Chords & Tabs

 

Nutsympton Chords & Tabs

311 Chords & Tabs

Version: 2 Type: Bass Tab 0 ratings
1 star 2 stars 3 stars 4 stars 5 stars
comments

Nutsympton Bass Tab

311-Nutsymtom


Riff 1:
=======

G:-----------------------------------------------------------------------|
D:---7---5---4------------------------x----------------------------x-----|
A:------------------------------------x----------------------------x-----|
E:-x---x---x---2---3-0--x-0--x-0--x-0-x-x-2---3-0--x-0--x--0--x--0-x-x-2-|
B:-----------------------------------------------------------------------|

Riff 2:
=======

G:--------------------------------------------------------------0--|
D:-----------------------------------------------------------------|
A:-----------------------------------------------------------------|
E:-5-5-5-5-----5-5-5-5-----5-5-5-5------5-5-5-5----5-5-5-5--x----2-|
B:-----------------------------------------------------------------|

Riff 3:
=======
[ Tab from: http://www.guitartabs.cc/tabs/0-9/311/nutsympton_btab_ver_2.html ]
G:-----------------------------------------------------------------|
D:---0---1---2-------6-7-9-7-6-7-6----0---3---4--------6-7-9-7-6-7-|
A:-2---3---4---5--7-----------------2---1---2---5--7---------------|
E:-----------------------------------------------------------------|
B:-----------------------------------------------------------------|

Solo [slap, of course]:
=======================

G:---x-7-9--------7---------|
D:--------------------------|
A:----------0h4-x----5--7---|
E:------------------------x-|
B:-x----------------------x-|

G:-9-7-9-------7------|
D:--------------------|
A:-------0h4-x---5--7-|
E:--------------------|
B:--------------------|

G:---x-7-9--------7----------|
D:---------------------------|
A:----------0h4-x----5--7----|
E:-------------------------x-|
B:-x-----------------------x-|


G:---7-9-9--------7-------|
D:------------------------|
A:----------0h4-x----5--7-|
E:------------------------|
B:-x----------------------|

G:---9-9-9---------7-------|
D:-------------------------|
A:-----------0h4-x----5--7-|    [repeat solo as needed]
E:-------------------------|
B:-------------------------|
Comments