311 - Next Chords & Tabs

 

Next Chords & Tabs

311 Chords & Tabs

Version: 1 Type: Tab 0 ratings
1 star 2 stars 3 stars 4 stars 5 stars
comments

Next Tab

   
'Next'
Performed by 311
A Studio Outtake from the "311" album
Music by:  ??? (N. Hexum)
(c) 1995 Allegiance Music/Hydroponic Music BMI
---------------
Tabbed by: Greg Parr (gparr@tiger.lsuiss.ocs.lsu.edu)
Additions/Corrections by: Michael Slusarz (slusarz@ucsu.colorado.edu)
                          Gavin Kalan (Parker_311@yahoo.com)
Lyric Help by: JohnBond311 (JohnBond311@aol.com)
The 311 Guitar Archive -- http://bigworm.colorado.edu/311archive/


[Guitar 1 (Nick):]

   D7sus2 N.C.   D7sus2 N.C.   D7sus2 N.C.   D7sus2 N.C.
1:-5------5------5------5------5------5------5------5-|
2:-5------6------5------6------5------6------5------6-|
3:-5-------------5-------------5-------------5--------|
4:-7-------------7-------------7-------------7--------|
5:-5-------------5-------------5-------------5--------|
6:----------------------------------------------------|

   F6                        E                  A       A7
1:-10-10--10--10--10-10--10---------------------5-5--5--5--5-5--5-|
2:-10-10--10--10--10-10--10--9-9--9--9--9-9--9--5-5--5--5--5-5--5-|
3:-10-10--10--10--10-10--10--9-9--9--9--9-9--9--6-6--6--6--6-6--6-|
4:---------------------------9-9--9--9--9-9--9--7-7--7--5--5-5--5-|
5:---------------------------7-7--7--7--7-7--7--7-7--7--7--7-7--7-|
6:----------------------------------------------5-5--5--5--5-5--5-|

   Dm                 E                  Am   B6 C6
1:-5-5--5--5--5-5--5---------------------5-5--4//5--5-5--5-|
2:-6-6--6--6--6-6--6--9-9--9--9--9-9--9--5-5--4//5--5-5--5-|
3:-7-7--7--7--7-7--7--9-9--9--9--9-9--9--5-5--4//5--5-5--5-|
4:-7-7--7--7--7-7--7--9-9--9--9--9-9--9--7-7---------------|
5:-5-5--5--5--5-5--5--7-7--7--7--7-7--7--7-7---------------|
6:---------------------------------------5-5---------------|

   D6                 Dm      G       Dm7                E
1:-7-7--7--7--7-7--7--5-5--5--3-3--3--5-5--5--5--5-5--5--------------------|
2:-7-7--7--7--7-7--7--6-6--6--3-3--3--6-6--6--6--6-6--6--9-9--9--9--9-9--9-|
3:-7-7--7--7--7-7--7--7-7--7--4-4--4--5-5--5--5--5-5--5--9-9--9--9--9-9--9-|
4:--------------------7-7--7--5-5--5--7-7--7--7--7-7--7--9-9--9--9--9-9--9-|
5:--------------------5-5--5--5-5--5--5-5--5--5--5-5--5--7-7--7--7--7-7--7-|
6:----------------------------3-3--3---------------------------------------|

   A       A7         Dm                 F6         Ddim
1:-5-5--5--5--5-5--5--5-5--5--5--5-5--5--10-10--10--10-10--10-|
2:-5-5--5--5--5-5--5--6-6--6--6--6-6--6--10-10--10---9--9---9-|
3:-6-6--6--6--6-6--6--7-7--7--7--7-7--7--10-10--10--10-10--10-|
4:-7-7--7--5--5-5--5--7-7--7--7--7-7--7-----------------------|
5:-7-7--7--7--7-7--7--5-5--5--5--5-5--5-----------------------|
6:-5-5--5--5--5-5--5------------------------------------------|
[ Tab from: http://www.guitartabs.cc/tabs/0-9/311/next_tab.html ]
   Em      A    A7 Dm      G       Dm          D#m Em  F6
1:-7-7--7--5-5--5--5-5--5--3-3--3--5-5--5--5---6---7---10-10--10-|
2:-8-8--8--5-5--5--6-6--6--3-3--3--6-6--6--6---7---8---10-10--10-|
3:-9-9--9--6-6--6--7-7--7--4-4--4--7-7--7--7---8---9---10-10--10-|
4:-9-9--9--7-7--5--7-7--7--5-5--5--7-7--7--7---8---9-------------|
5:-7-7--7--7-7--7--5-5--5--5-5--5--5-5--5--5---6---7-------------|
6:---------5-5--5----------3-3--3--------------------------------|

   Ddim       Em      A    A7 Dm      G      Dm/A Am7
1:-10-10--10--7-7--7--5-5--5--5-5--5--3-3--3----5-5-|
2:--9--9---9--8-8--8--5-5--5--6-6--6--3-3--3----6p5-|
3:-10-10--10--9-9--9--6-6--6--7-7--7--4-4--4----7p5-|
4:------------9-9--9--7-7--5--7-7--7--5-5--5----7p5-|
5:------------7-7--7--7-7--7--5-5--5--5-5--5--------|
6:--------------------5-5--5----------3-3--3--------|

[Guitar 2 (Tim):]
Raised one half-step to fit the original tab
With High Treble and Tremolo

   N.C.
1:-----------------------------------------------------------------------|
2:----10-----------------------------------------------------------------|
3:-------12-10-12------------9---------------9---------------------------|
4:-12--------------12--10-12---12-10-9---9-9---12-10-9----------------10-|
5:------------------------------------------------------12-10---10-12----|
6:------------------------------------------------------------9----------|

   N.C.
1:---------------|
2:---------------|
3:---------------|
4:---------------|
5:-12-10-12------|
6:-----------(9)-|

   N.C.
1:-----------------------------------------------------------------------------|
2:-----------------------------------------------------------------------------|
3:--------------------------------------------------9--------------------------|
4:-12-10----12-10--9-9-10-9h10p9--------------12-12------------9-10-9----------|
5:-------12-----------------------12-10-12------------12-12-12--------10-------|
6:-----------------------------------------8b----------------------------12-12-|

   N.C.
1:------------------------------------------------------------------------|
2:------------------------------------------------------------------------|
3:--------------9---------------9-----------------------------------------|
4:-12-10--10-12---12-10-9---9-9----12-10-9----------------10--------------|
5:------------------------------------------12-10---10-12----12-10-12-----|
6:------------------------------------------------9-------------------(9)-|

   N.C.
1:----------------|
2:----------------|
3:----------------|
4:-12-10----12-10-|
5:-------12-------|
6:----------------|

   N.C.
1:--------------------------------------------------------------------|
2:--------------------------------------------------------------------|
3:-9-10-10--10--9-9-10-9h10p9-------9-10-9------------------9---10-10-|
4:----------------------------10-12--------12--12-10--12-13-----------|
5:--------------------------------------------------------------------|
6:--------------------------------------------------------------------|

   N.C.
1:-----------------|
2:-----------------|
3:-10--9-10-9-10-9-|
4:-----------------|
5:-----------------|
6:-----------------|

   N.C.
1:-------------------------------|
2:-------------------------------|
3:-9------------9-10-9-----------|
4:---12---10-12--------12--12-10-|
5:-------------------------------|
6:-------------------------------|


Lyrics:
=======
What is said at the beginning of the song:
   Can pick up on this jive this crazy music here man
   Do ya, um, dig the Ree-bop?
   Huh?
   The Ree-bop, dad, the Ree-bop
   You too square man I won't get this...
Comments