311 - Next Chords & Tabs

 

Next Chords & Tabs

311 Chords & Tabs

Version: 2 Type: Bass Tab 0 ratings
1 star 2 stars 3 stars 4 stars 5 stars
comments

Next Bass Tab

'Next' -- Bass Tab
Performed by 311
A Studio Outtake from the "311" album
Music by:  ??? (N. Hexum)
(c) 1995 Allegiance Music/Hydroponic Music BMI
---------------
Tabbed by: Justin Reynolds (iLLiHeXiLL@aol.com)
The 311 Guitar Archive -- http://chromosome.colorado.edu/311archive/Home.html

* Watch for fast fingering were it looks like there are chords. These aren't
  chords, they are just played quick! *


G:---------------------
D:------7------------7-
A:-5----------5--------
E:---------------------

G:-10-10--10--10--10-10--10-----------------------------------------
D:------------------------------9---9-------9---9-------------------
A:----------------------------7---7---7-7-7---7---------------------
E:------------------------------------------------5-5--5--5--5-5--5-

G:-------------------------------------------
D:-------------------------------------------
A:-5-5--5--5--5-5--5--7-7--7--7--7-7--7------
E:---------------------------------------5-5-
[ Tab from: http://www.guitartabs.cc/tabs/0-9/311/next_btab_ver_2.html ]
G:-7-7--7--7--7-7--7--7-7--7------------------------
D:--------------------------------------------------
A:---------------------------5-5--5--5-5--5---------
E:-------------------------------------------3-3--3-

G:-------------------------------
D:-------------------------------
A:-5--5-5--5--7-7--7--7--7-7--7--
E:-------------------------------

G:----------------------------------------------10-10--10--10-10--10-
D:---------------------------7-7--7---7--7-7--7----------------------
A:--7-7-7-7-7--7---7-5-5--5-5-5-5---5--------------------------------
E:-5-5-5-5-5-5---5---------------------------------------------------

G:------------------------------------------------------10-10--10-
D:----------7-7--5-----------5-5---5------------------------------
A:-7-7--7------------5-5--5-----------5-5--5--5---6---7-----------
E:-----------5-5---5----------3--3--3-----------------------------

G:-10-10--10-------------------------------------
D:-------------------------------------------7p5-
A:------------7-7--7----------5-5--5-------------
E:--------------------5-5--5----------3-3--3-----


== Last Updated:  November 23, 1997 ==
Comments