311 - Mindspin Chords & Tabs

 

Mindspin Chords & Tabs

311 Chords & Tabs

Version: 2 Type: Bass Tab 0 ratings
1 star 2 stars 3 stars 4 stars 5 stars
comments

Mindspin Bass Tab

   
Song:Mindspin
Band:311
Album:Sound SyStem
Tabber:T4-TURBO

Verse A:
========
g:-------------------------------|
d:-------------------------------|
a:-------------------------------|
e:-------------------------------|
b:-0-0-0-0--5--0-0--7-0-0-0-9-7-7|

g:--------------------------------------|
d:--------------------------------------|
a:--------------------------------------|
e:--------------------------------------|
b:-0-0-0-0--5--0-0--0-0-0-0--9h12-9h12\\|

Verse B:
========
g:--------------------------------|
d:--------------------------------|
a:--------------------------------|
e:--------------------------------|
B:-0-0-0-0-3-3-3-3-5-5-5-5-7-7-7-7|
[ Tab from: http://www.guitartabs.cc/tabs/0-9/311/mindspin_btab_ver_2.html ]
Chorus:
=======
g:-----------------------|---------|
d:-----------------------|---------|
a:-----------------------|---------|
e:-----------------------|---------|
b:-9--12b-9-7-5-5-5-5-7--|--9-7-9-7|
  |        (x4)        |   

Bridge:
=======
g:----------|
d:----------|
a:5---3-----|
e:----------|
b:---------3|

g:-------------------------------------|
d:-------------------------------------|
a:-------------------------------------|
e:-5-4-5-4-5----------5-4-5-4-5--------|
b:-----------5--3--5------------5--3--5|

1:----------------------------------|
2:----------------------------------|
3:----------------------------------|
4:----------------------------------|
5:-3-2-3-2-3----------3-2-3-2-3-----|
6:-----------3--1--3------------3--1|

End:
g:-------|
d:-------|
a:-------|
e:------4|
b:1------|

just repeat that as many times as you need.
Comments