311 - Lucky Chords & Tabs

 

Lucky Chords & Tabs

311 Chords & Tabs

Version: 1 Type: Bass Tab 0 ratings
1 star 2 stars 3 stars 4 stars 5 stars
comments

Lucky Bass Tab

'Lucky' -- Bass Tab
Performed by 311
From the album "Grassroots" on Capricorn Records
Music by:  C. Sexton
Lyrics by:  N. Hexum and D. Martinez
(c) 1994 Allegiance Music/Hydroponic Music BMI
---------------
Tabbed by: Jeremy Daw (summit@rideau.net)
The 311 Guitar Archive -- http://chromosome.colorado.edu/311archive/Home.html


Intro:
======

G:-------------------------------------
D:-------------------------------------
A:------------------------4--2---------
E:-0---0---0---0---0---0-------4--2--4-
B:-------------------------------------


Riff 1:
=======

G:----------------------
D:--------1-2-1-2-1-----
A:------4-----------4-4-
E:-2-2------------------
B:----------------------


Riff 2:
=======
[ Tab from: http://www.guitartabs.cc/tabs/0-9/311/lucky_btab.html ]
G:----------------------------
D:----------------------------
A:-0-0-0--5-5--5--------------
E:----------------3-3-3-3-3-3-
B:----------------------------


Riff 3:
=======

G:------------------------------------
D:------------------------------------
A:------------------------------------
E:-0-0-0-0-0-0-0-0-0-0-0-0--3-5-5-6-7-
B:------------------------------------

G:-----------------------------------------
D:-----------------------------------------
A:-----------------------------------------
E:-0-0-0-0-0--2h3-2h3--0-0-0-0-0-3-5-5-6-7-
B:-----------------------------------------


Chorus:
=======

G:--------------------------------
D:--------------------------------
A:-9---------9--7-7-6-----6-7-8-9-
E:------6--9----------7-----------
B:---7------------------7---------


== Last Updated:  November 23, 1997 ==
Comments