311 - Love Song Chords & Tabs

 

Love Song Chords & Tabs

311 Chords & Tabs

Version: 8 Type: Tab 0 ratings
1 star 2 stars 3 stars 4 stars 5 stars
comments

Love Song Tab

   
311
Song: Love Song
Soundtrack:50 First Dates

Standard Tuning

Guitar 1

E||-7-|
B||-5-|
G||-5-|
D||-7-|
A||---|
E||---|

Guitar 2 (Play 4 times)

E||-5--------5-------3-------3---|
B||-5--------5-------3-------3---|
G||-5-x-x--x-5-x-x-x-4-x-x-x-4-x-|    
D||-7-x-x--x---x-x-x-5-x-x-x-5-x-|              
A||------------------------------|
E||------------------------------|
[ Tab from: http://www.guitartabs.cc/tabs/0-9/311/love_song_tab_ver_8.html ]
E||-----1--------1-------3-------3---|
B||-----1--------1-------5-------5---|
G||-x-x-2-x-x--x-2-x-x-x-4-x-x-x-4-x-| 
D||-x-x-3-x-x--x-3-x-x-x---x-x-x---x-|
A||----------------------------------|
E||----------------------------------|

Guitar 3 (Lead)

E||---0-0-0-0-0-0-0-0-0------0-0-0-0-0-0-0-0-0-|
B||---1-3-3/5-3-3-5-3\1------1-3-3/5-3-3-5-3-4-|
G||-2--------------------2--2------------------|
D||--------------------------------------------|
A||--------------------------------------------|
E||--------------------------------------------|

Enjoy!
Comments