311 - Love Song Chords & Tabs

 

Love Song Chords & Tabs

311 Chords & Tabs

Version: 4 Type: Tab 0 ratings
1 star 2 stars 3 stars 4 stars 5 stars
comments

Love Song Tab

   
-------------------------------------------------------------------------------
			     LOVE SONG SOLO - 311
-------------------------------------------------------------------------------
Tabbed by: biggianthead
Email: acbiggiantheaddc@yahoo.com

Tuning: standard- E A D G B E
[ Tab from: http://www.guitartabs.cc/tabs/0-9/311/love_song_tab_ver_4.html ]
e|-5h7-88-7-5-77-5----------5h7-88-7-5-77-5----------5h7-88-7-5-77-5---------
B|------------------8-5-55-------------------8-5-55-------------------8-5-55-
G|---------------------------------------------------------------------------
D|---------------------------------------------------------------------------
A|---------------------------------------------------------------------------
E|---------------------------------------------------------------------------

e|-------------7-77-7-----7-77-7------7-77-7-----7-8-10----------------------
B|-------------------88----------888---------88----------8-8-10--------------
G|-7-5b6-555-----------------------------------------------------------------
D|---------------------------------------------------------------------------
A|---------------------------------------------------------------------------
E|---------------------------------------------------------------------------
Comments