311 - Love Song Chords & Tabs

 

Love Song Chords & Tabs

311 Chords & Tabs

Version: 1 Type: Tab 1 rating
1 star 2 stars 3 stars 4 stars 5 stars
comments

Love Song Tab

   
Song Name: Lovesong
Artist: 311
Album: 50 First Dates Soundtrack
E-mail: allen@pogipoints.com

This tab is 100% accurate..if you have any suggestion or comment just email me!
rock on!!!
Standard Tuning


Intro/Verse:

Nice Harmonic:
e|--7--|
B|--5--|
G|--5--|
D|--7--|
A|-----|
E|-----|

e|-------------------------------------------------------------|
B|-------------------------------------------------------------|
G|--5-5-7-7/9-7--7-7/9---5-7-7/9-7--7-7/9----5-7-7/9-7--7-7/9--|
D|--------------------7-------------------7-------------------7|
A|-------------------------------------------------------------|
E|-------------------------------------------------------------|

(In Background w/wah - listen for rhythm)
      Am    G     F     Em
e|---5--X--3--X--1--X--0--X------------------------------------|
B|---5--X--3--X--1--X--0--X------------------------------------|
G|---5--X--4--X--2--X--0--X------------------------------------|
D|------X-----X-----X-----X------------------------------------|
A|------X-----X-----X-----X------------------------------------|
E|------X-----X-----X-----X------------------------------------|



Fill/Bridge:

Repeat 3 times
e|-----5-7/8-8-8-8/7-5-7-7-7/5-5/3-3/0-0-0---------------------|
B|-------------------------------------------------------------|
G|-------------------------------------------------------------|
D|-------------------------------------------------------------|
A|-------------------------------------------------------------|
E|-------------------------------------------------------------|

End with:
[ Tab from: http://www.guitartabs.cc/tabs/0-9/311/love_song_tab.html ]
e|-------------------------------------------------------------|
B|------3-1-111111---------------------------------------------|
G|-------------------------------------------------------------|
D|-------------------------------------------------------------|
A|-------------------------------------------------------------|
E|-------------------------------------------------------------|


Chorus: 

Play 3X
        F         G       Am
e|--1--1-1--1-3--3-3--3--5-5-----------------------------------|
B|--1--1-1--1-3--3-3--3--5-5-----------------------------------|
G|--2--2-2--2-4--4-4--4--5-5-7-5-4-32--------------------------|
D|--3--3-3--3-5--5-5--5--7-7-----------------------------------|
A|-------------------------------------------------------------|
E|-------------------------------------------------------------|

End with:
        F         G
e|--1--1-1--1-3--3-3--3----------------------------------------|
B|--1--1-1--1-3--3-3--3----------------------------------------|
G|--2--2-2--2-4--4-4--4----------------------------------------|
D|--3--3-3--3-5--5-5--5----------------------------------------|
A|-------------------------------------------------------------|
E|-------------------------------------------------------------|


Solo:
e|--7-7-7-7-------7-7------7-7-7-7------7-7-8-10---------------|
B|----------888-------888----------888-----------8h9p8---------|
G|-------------------------------------------------------------|
D|-------------------------------------------------------------|
A|-------------------------------------------------------------|
E|-------------------------------------------------------------|


e|-------------------------------------------------------------|
B|---5-3-1-3-1-1-1-1h3p1-----1---------------------------------|
G|-----------------------2---2---------------------------------|
D|---------------------------3---------------------------------|
A|-------------------------------------------------------------|
E|-------------------------------------------------------------|
Comments