311 - Love Song Chords & Tabs

 

Love Song Chords & Tabs

311 Chords & Tabs

Version: 5 Type: Bass Tab 0 ratings
1 star 2 stars 3 stars 4 stars 5 stars
comments

Love Song Bass Tab

Intro/Verse
G--------------------------------------------------|
D-------------------------------------------   x14-|
A------------------------------320-----------------|
E--5-5--77-8--3-33--55-7--1-1------0-000-888-------|

Chorus
G--------------------------------------------------|
D--------------------------------------------------|   x3
A-----------------------------------3-3-3/7-777----|
E--1-1-111--3-3-3--55--77--5-5-555-----------------|

G-------------------------|
D-------------------------|
A-------------------------|
E--1-1-111--3-3-3--55--77-|
[ Tab from: http://www.guitartabs.cc/tabs/0-9/311/love_song_btab_ver_5.html ]
Verse
G-----------------------------------------------|
D-----------------------------------------------|   x8
A------------------------------320--------------|
E--5-5--77-8--3-33--55-7--1-1------0-000-888----|

Chorus
G--------------------------------------------------|
D--------------------------------------------------|   x3
A-----------------------------------3-3-3/7-777----|
E--1-1-111--3-3-3--55--77--5-5-555-----------------|


G-------------------------|
D-------------------------|
A-------------------------|
E--1-1-111--3-3-3--55--77-|

End with
G-----
D-----
A-----
E--5--
Comments