311 - Love Song Chords & Tabs

 

Love Song Chords & Tabs

311 Chords & Tabs

Version: 2 Type: Bass Tab 0 ratings
1 star 2 stars 3 stars 4 stars 5 stars
comments

Love Song Bass Tab

----------------------------------------------------------------------------
			    Love Song - 311
----------------------------------------------------------------------------

Tabbed By : Deadmetal
e-mail:Deadpilot03@aol.com 

Tuning:Standard EADG

Intro/Verse
G|-----------------------------------------------------------|
D|-----------------------------------------------------------|
A|--------------55-3-1-111-22-3------------------------------|
E|-5-5-578-3-333-----------------0-000--555-888--------------|
[ Tab from: http://www.guitartabs.cc/tabs/0-9/311/love_song_btab_ver_2.html ]
Chorus
G|-----------------------------------------------------------|
D|-----------------------------------------------------------|
A|--------------------------333/7777-------------------------|
E|-1-1-111-3-3-3333-5-5-555----------------------------------|

End
G|-----------------------------------------------------------|
D|-----------------------------------------------------------|
A|-----------------------------------------------------------|
E|----5~-----------------------------------------------------|


Intro/Verse: x14
Chorus: x4
Intro/Verse: x8
Chorus: x4
End: x1

============================================================================
Comments