311 - Livin And Rockin Chords & Tabs

 

Livin And Rockin Chords & Tabs

311 Chords & Tabs

Version: 1 Type: Tab 0 ratings
1 star 2 stars 3 stars 4 stars 5 stars
comments

Livin And Rockin Tab

This one's from Soundsystem, and it kicks the butt.

intro: w/ dist., and octave
e:-----------------------------------|
B:--5p3p0----------------------------|
G:--------4p2p0-------3p2p0----------|
D:--------------4p2p0----------------|
A:-----------------------------------|
E:-----------------------------------|

verse: dist./octave( sounds just as good without octave)
e:----------------------------------------------------------------|
B:----------------------------------------------------------------|
G:----------------------------------------------------------------|
D:----------------------------------------------------------------|
A:-------------------------5-5-5//--------------------------------|
E:-0-0-0-3-0-5-0-6-5-0-3-0------------0-0-0-3-0-5-0-6-5-0-3-6-5-3-|


prechorus:same effects as other riff(same effects throughout the whole song)
e:------------------------------------------------------|
B:------------------------------------------------------|
G:------------------------------------------------------|
D:--------4---2-2-2-2-3---------------------------------|
A:------4---------------4--4-2-4-0---2p0--2-3-2-0-------|
E:--2-2-------------------------------------------2-0---|
[ Tab from: http://www.guitartabs.cc/tabs/0-9/311/livin_and_rockin_tab.html ]
chorus:
e:----------------------------------------------------------|
B:----------------------------------------------------------|
G:----------------------------------------------------------|
D:----------------------------------------------------------|
A:--------2------------5-5-4----------2---------------------|
E:--0-2-4---4-2-0--2-4----------0-2-4---4-2-0--2-0-2-4-2-0--|

heavy bridge thing:
e:--------------------------------------------------------------------------|
B:--------------------------------------------------------------------------|
G:--------------------------------------------------------------------------|
D:--------------------------------------------------------------------------|
A:--2-2---2-2-2----2-2---2-2-2---2-2-------2-2-2-------2-2-------2-2-2------|
E:--0-0---0-0-0----0-0---0-0-0---0-0-(2.6)-0-0-0-(2.6)-0-0-(2.6)-0-0-0------|(2.6)

outro:
e:----------------------------------------------|
B:----------------------------------------------|
G:----------------------------------------------|
D:----------------------------------------------|
A:---------------------------------------2------|
E:--0-0-2-0-2-4-2-0---0-0-2-0-2-4-2-0----0------|


can't remember how many times to play the outro part before the ending chord. The part 
parentheses are harmonics, and that sounds best with no octave. Have fun with this one - 
been jammin' on this one for like a year. its fun as hell with your amp blastin'.
                                    Bye, bye.
Comments