311 - Livin And Rockin Chords & Tabs

 

Livin And Rockin Chords & Tabs

311 Chords & Tabs

Version: 3 Type: Bass Tab 0 ratings
1 star 2 stars 3 stars 4 stars 5 stars
comments

Livin And Rockin Bass Tab

   
Song:Livin&Rockin
Artist:311
Album:Sound SyStem
Tabber:T4-TURBO

Intro:(you have to have subwoofers or good headphones to hear this)
g:-------------|
d:-------------|
a:-------------|
e:-------------|
b:1-4-7-3-5-4-3|

Intro 2:
g:----------------|
d:----------------|
a:----------------|
e:7p6p5-//12-12-12|
b:----------------|

Riff 1:
g:---------------------------------------------------|
d:---------------------------------------------------|
a:--------------------5-5-5--------------------------|
e:0-0-0-3-0-5-6-0-0-0-------0-0-0-3-0-5-6-0-0-0-6-5-3|
b:---------------------------------------------------|
The 2nd time around after acouple times he does a slide up
to 12 just listen through headphones youll hear it.
[ Tab from: http://www.guitartabs.cc/tabs/0-9/311/livin_and_rockin_btab_ver_3.html ]
Riff 2:
g:--------------------------------------------|
d:------4-2-2-2-2-2h3-------------------------|
a:----4---------------4-2-4-0--2-0-2-3-2-0----|
e:2-2--------------------------------------2-0|
b:--------------------------------------------|

Riff 3:
g:-------------------------------------------------|
d:-------------------------------------------------|
a:------2-----------5-5-4-------2------------------|
e:0-2-4---4-2-0-2-4-------0-2-4---4-2-0-0-2-0-2-4-2|
b:-------------------------------------------------|

Riff 4:
g:---------------------------------------------|
d:---------------------------------------------|
a:------2-------------------2------------------|
e:0-2-4---4-2-0-------0-2-4---4-2-0-0-2-0-2-4-2|
b:--------------3-3-2--------------------------|

Riff 5:
g:----------------------------|
d:----------------------------|
a:----------------------------|
e:0-0-2-0-2-4-2-0--0-2-0-2-4-2|
b:----------------------------|

This is basicly the same as the other one but that guy had every thing
tabbed like hammer ons & pulloffs and i dont like when tabs are
all cluped together there to hard to read so this one is spaced out.
Comments