311 - Lifes Not A Race Chords & Tabs

 

Lifes Not A Race Chords & Tabs

311 Chords & Tabs

Version: 2 Type: Tab 0 ratings
1 star 2 stars 3 stars 4 stars 5 stars
comments

Lifes Not A Race Tab

100% acurate
verse
e|-----------------*--------------------|
B|-----3-3-5-5-3-3-4/6--5--3-3-5-5------|
G|-----3-3-5-5-3-3-5/7--5--3-3-5-5------|
D|-3/5----------------------------------|
A|--------------------------------------|
E|--------------------------------------|
chorus
e|-----------------------------|
B|-8--11-10------9--8-----8-7--|
G|-----------10--------8-------| x2
D|-----------------------------|
A|-----------------------------|
E|-----------------------------|

e|-10--13-12------11--10------10-9--10--13-12------11--10---10-9\--|
B|------------13----------11-------------------13------------------|
G|-----------------------------------------------------------------|
D|-----------------------------------------------------------------|
A|-----------------------------------------------------------------|
E|-----------------------------------------------------------------|

solo 1
e|----------------------------------------------------|
B|----------------------------------------------------|
G|------333-3-5--5^--3---5-3--------------------------|
D|---3h5---5-----------3-----3^--5p3------------------|
A|----------------------------------5p3h5--3-2h3p2h3\-|
E|----------------------------------------------------|

                                       *-*-* *-*-*
e|-----------------------------3----3h5--3-5---3-5---|
B|------------------------3h5h6-6------6-----6-----6-|
G|------33--22----3-2-3/5----------------------------|
D|---3h5---5---3/5-----------------------------------|
A|---------------------------------------------------|
E|---------------------------------------------------|

     *-*-**-*-*   *-*-------------|
e|---5h8p5----5-6-5h6p5-----------|
B|--------6------------6p5--------|
G|----------7-------------3\------|
D|--------------------------------|
A|--------------------------------|
E|--------------------------------|

solo 2
e|--------------------------------------------------------------------------|
B|-/15-15151515151518p151515151518p1515151518p15151518^--18^----------------|
G|--------------------------------------------------------------------------|
D|--------------------------------------------------------------------------|
A|--------------------------------------------------------------------------|
E|--------------------------------------------------------------------------|

e|-----------------------------------------------------------------|
B|--18^-15h18p15--15-----------------------------------------------|
G|--------------17--17151717^-17^p15----1515----15-15-17-15-17^-15-|
D|----------------------------------17------1717-------------------|
A|-----------------------------------------------------------------|
E|-----------------------------------------------------------------|

e|--------------------181818--18181818181818181820^\--|
B|--18^-1518^18^--/15-151515--------------------------|
G|---------------------/-/-/--------------------------|
D|---------------------/-/-/--------------------------|
A|---------------------/-/-/--------------------------|
E|----------------------------------------------------|

Bridge
e|----------------------------------------------3--------------------------|
B|-3---3--3----*--------------*------3---*------3------3---3---------------|
G|-3---3----5--5/6-5-----3-5--5/6------5-5/6-5---------3--------333---3-5^-|
D|---5----------------5----------------------------555---5----5-----5------|
A|-------------------------------------------------------------------------|
E|-------------------------------------------------------------------------|


e|---------------------------------------------|
B|--------------3--------3----3----------------|
G|-5-3----553--------3-----5----5--3-5-5-3-----|
D|-----5------5----5---5-------------------5-5-|
A|---------------------------------------------|
E|---------------------------------------------|
[ Tab from: http://www.guitartabs.cc/tabs/0-9/311/lifes_not_a_race_tab_ver_2.html ]
solo 3                                         * -* -*
e|------15---15---1515-15-1517-15----1517-1817-18p17p15h17p15-|
B|--17----18---17---------------------------------------------|
G|------------------------------------------------------------|
D|------------------------------------------------------------|
A|------------------------------------------------------------|
E|------------------------------------------------------------|

         * -* -*  * -* -*      *
e|---151718-17-18-17h18p17p15-18/20-------------------------------------|
B|-18-------------------------------------------------*-----------------|
G|------------------------------------003p00h55p007-9-9/10--9-7-57--3\0-|
D|--------------------------------------------------------------------0-|
A|----------------------------------------------------------------------|
E|----------------------------------------------------------------------|

                                       * -* -*  * -* -* -* -*   *-*-*
e|-------------------------------------15-17-18-17-15-15p17h15--151515\--|
B|-------1518151518151515181515151518^------------------------18---------|
G|-0-17^-----------------------------------------------------------------|
D|-----------------------------------------------------------------------|
A|-----------------------------------------------------------------------|
E|-----------------------------------------------------------------------|

                                                                 * -* -*
e|-----------------------------------------*---------------------------------|
B|----------------------------------------17/18-17---------------------------|
G|----------------------9----9-10p9-10/12-----------17-15----151515h17p17----|
D|-------------8p7h8/10---10---------------------------------------------17\-|
A|-/8-7--8-10----------------------------------------------------------------|
E|---------------------------------------------------------------------------|
                                 * -* -*            * -* -*
e|-------------------------------------10-12-1312-1312h13p1210--|
B|-------------------------------11-13--------------------------|
G|--------------------101010--10--------------------------------|
D|-------101010--10h12------12----------------------------------|
A|--10h12------12-----------------------------------------------|
E|--------------------------------------------------------------|

e|--10h13p10------------------------18--18-18--18/---------------------------|
B|----------11---10h13p10-----------15---/--/--------------------------------|
G|------------12---------1210\-------/---/--/--------------------------------|
D|------------------------------/17--/---/--/--------------------------------|
A|-----------------------------------/---------------------------------------|
E|---------------------------------------------------------------------------|
outro
e|----------------------------|
B|----------------------------|
G|----------------------------|
D|----------5-----------5-----|
A|----5---3---3---5---3---3---|
E|--3---3-------3---3---------|

end solo
e|-7h10------7-77h10p7------7h10------7-77h10p7-----------------------------|
B|--------------------8------------------------8----------------------------|
G|--------------------------------------------------------------------------|
D|--------------------------------------------------------------------------|
A|--------------------------------------------------------------------------|
E|--------------------------------------------------------------------------|

e|-7h10p77-7h10p77----7-----------------------------------------------------|
B|-----------------------8----8-8/10---10/8---8/5-5-5/88\3-3--3/5-5\3-3-----|
G|------------------------9-99----------------------------------------------|
D|--------------------------------------------------------------------------|
A|--------------------------------------------------------------------------|
E|--------------------------------------------------------------------------|

e|-----------------/10------------------------------------------------------|
B|-3h5p3---5/10-8------12----10---------------------------------------------|
G|------------------------12----10-12------12\------------------------------|
D|--------------------------------------------------------------------------|
A|--------------------------------------------------------------------------|
E|--------------------------------------------------------------------------|

/ \ = slides
* = grace note
*-*-* = triplet
h = hammer on
p = pull off
Comments