311 - Let The Cards Fall Chords & Tabs

 

Let The Cards Fall Chords & Tabs

311 Chords & Tabs

Version: 1 Type: Tab 0 ratings
1 star 2 stars 3 stars 4 stars 5 stars
comments

Let The Cards Fall Tab

 "Let The Cards Fall"
 by 311

    Intro Solo

 e---------------------------------------5-----------------------5---
 B--10-----10-----8\7-8\7---5--8\7-8\7-----5--8-8\7---5--8-8\7-----5-
 G-----11-----11----------5------------5------------5----------5-----
 D-------------------------------------------------------------------
 A-------------------------------------------------------------------
 E-------------------------------------------------------------------

 e------------------------------------------------------------------------
 B--/13-13--13/15-12-12/13\12-12/13\12------------------------------------
 G-------------------------------------14--12-11-9-12-11-9-11--12-11-9-11-
 D------------------------------------------------------------------------
 A------------------------------------------------------------------------
 E------------------------------------------------------------------------
[ Tab from: http://www.guitartabs.cc/tabs/0-9/311/let_the_cards_fall_tab.html ]
 e------------------------------------------------------------------------
 B------------------------------------------------------------10-10-10-10-
 G-11-9------------------------------------5----9-10-9----12--9--9--9--9--
 D------12--10-10/12\10------------------8---8---------10-----12-12-12-12-
 A----------------------12--/10-9-7-9-7-----------------------------------
 E------------------------------------------------------------------------

 e---------------------------------------------------------
 B--------------------10-------/12-14-15\------------------
 G------12-11-9-----9----9----------------/12-14-12-14-12--
 D--/12---------/12--------12\-----------------------------
 A---------------------------------------------------------
 E---------------------------------------------------------

 e--------------------------------------------------
 B--/15-13-12-12/13\12-10-12-10---------------------
 G------------------------------12--11/12\11--(11)\-
 D--------------------------------------------------
 A--------------------------------------------------
 E--------------------------------------------------

 This is just the beginning of Let The Cards Fall.
 Later.
Comments