311 - Ill Be Here Awhile Chords & Tabs

 

Ill Be Here Awhile Chords & Tabs

311 Chords & Tabs

Version: 5 Type: Tab 0 ratings
1 star 2 stars 3 stars 4 stars 5 stars
comments

Ill Be Here Awhile Tab

   
I'LL BE HERE A WHILE
311
(From the 2001 Album FROM CHAOS)
by: jp dela cruz
acidrayn17@yahoo.com


 4/4
  Gtr I
  Q  E E Q  E E   E E E E +E  E Q    q.   E E Q  E   +E  q  E +E  S S E E
|-0----0-0----0-|---0---2-(2)-0-2--|-3----3-2-0----|-----------------------|
|-1----1-1----1-|---1---1-(1)-1-1--|-0----0-0-0--3-|-(3)-1--0-(0)-----0-1--|
|-2----2-2----2-|---2---2-(2)-2-2--|-0------0-0----|-----0--0-(0)-0h2------|
|---------------|------------------|---------------|-----------------------|
|---------------|------------------|---------------|-----------------------|
|---------------|------------------|---------------|-----------------------|


  Am                                 G
  Q.   E Q  E E   E E E E +E  E Q    E E E E E E E E   E Q  E E E E E
|------0-0----0-|---0---2-(2)-0-2--|-3-----2-----0---|----------------||
|------1-1----1-|---1---1-(1)-1-1--|---0-----0-----0-|---3----1p0-0h1-||
|-2------2----2-|---2---2-(2)-2-2--|-----0-----0-----|-0----0---------||
|---------------|------------------|-----------------|----------------||
|---------------|------------------|-----------------|----------------||
|---------------|------------------|-----------------|----------------||


   Chorus
    Am                                  G
    Gtrs I, II
    E E E E E E E E   E E E E E E E E   E E E E E E E E   E E E E E E E E   4x
||--x-0-x-0-x-0-x-0-|-x-0-x-0-x-0-x-0-|-x-3-x-3-x-3-x-3-|-x-3-x-3-x-3-x-3---||
||o-x-1-x-1-x-1-x-1-|-x-1-x-1-x-1-x-1-|-x-0-x-0-x-0-x-0-|-x-0-x-0-x-0-x-0--o||
||--x-2-x-2-x-2-x-2-|-x-2-x-2-x-2-x-2-|-x-0-x-0-x-0-x-0-|-x-0-x-0-x-0-x-0---||
||------------------|-----------------|-----------------|-------------------||
||o-----------------|-----------------|-----------------|------------------o||
||------------------|-----------------|-----------------|-------------------||


   Verse
    Bm/D                                Em/B
    Gtrs I, II
    E E E E E E E E   E E E E E E E E   E E E E E E E E   E E E E E E E E
||--x-7-x-7-x-7-x-7-|-x-7-x-7-x-7-x-7-|-x-3-x-3-x-3-x-3-|-x-3-x-3-x-3-x-3---||
||o-x-7-x-7-x-7-x-7-|-x-7-x-7-x-7-x-7-|-x-5-x-5-x-5-x-5-|-x-5-x-5-x-5-x-5--o||
||--x-7-x-7-x-7-x-7-|-x-7-x-7-x-7-x-7-|-x-4-x-4-x-4-x-4-|-x-4-x-4-x-4-x-4---||
||------------------|-----------------|-----------------|-------------------||
||o-----------------|-----------------|-----------------|------------------o||
||------------------|-----------------|-----------------|-------------------||


   Pre-Chorus
    Cmaj7                               G
    Gtrs I, II
    E E E E E E E E   E E E E E E E E   E E E E E E E E   E E E E E E E E
||--3-3-x-3-3-3-x-3-|-3-3-x-3-3-3-x-3-|-3-3-x-3-3-3-x-3-|-3-3-x-3-3-3-x-3---||
||o-5-5-x-5-5-5-x-5-|-5-5-x-5-5-5-x-5-|-3-3-x-3-3-3-x-3-|-3-3-x-3-3-3-x-3--o||
||--4-4-x-4-4-4-x-4-|-4-4-x-4-4-4-x-4-|-4-4-x-4-4-4-x-4-|-4-4-x-4-4-4-x-4---||
||--5-5-x-5-5-5-x-5-|-5-5-x-5-5-5-x-5-|-5-5-x-5-5-5-x-5-|-5-5-x-5-5-5-x-5---||
||o-3-3-x-3-3-3-x-3-|-3-3-x-3-3-3-x-3-|-5-5-x-5-5-5-x-5-|-5-5-x-5-5-5-x-5--o||
||------------------|-----------------|-3-3-x-3-3-3-x-3-|-3-3-x-3-3-3-x-3---||


   Chorus
    Am                                  G
    Gtrs I, II
    E E E E E E E E   E E E E E E E E   E E E E E E E E   E E E E E E E E   4x
||--x-0-x-0-x-0-x-0-|-x-0-x-0-x-0-x-0-|-x-3-x-3-x-3-x-3-|-x-3-x-3-x-3-x-3---||
||o-x-1-x-1-x-1-x-1-|-x-1-x-1-x-1-x-1-|-x-0-x-0-x-0-x-0-|-x-0-x-0-x-0-x-0--o||
||--x-2-x-2-x-2-x-2-|-x-2-x-2-x-2-x-2-|-x-0-x-0-x-0-x-0-|-x-0-x-0-x-0-x-0---||
||------------------|-----------------|-----------------|-------------------||
||o-----------------|-----------------|-----------------|------------------o||
||------------------|-----------------|-----------------|-------------------||


   Verse
    Bm/D                                Em/B
    Gtrs I, II
    E E E E E E E E   E E E E E E E E   E E E E E E E E   E E E E E E E E
||--x-7-x-7-x-7-x-7-|-x-7-x-7-x-7-x-7-|-x-3-x-3-x-3-x-3-|-x-3-x-3-x-3-x-3---||
||o-x-7-x-7-x-7-x-7-|-x-7-x-7-x-7-x-7-|-x-5-x-5-x-5-x-5-|-x-5-x-5-x-5-x-5--o||
||--x-7-x-7-x-7-x-7-|-x-7-x-7-x-7-x-7-|-x-4-x-4-x-4-x-4-|-x-4-x-4-x-4-x-4---||
||------------------|-----------------|-----------------|-------------------||
||o-----------------|-----------------|-----------------|------------------o||
||------------------|-----------------|-----------------|-------------------||


   Pre-Chorus
    Cmaj7                               G
    Gtrs I, II
    E E E E E E E E   E E E E E E E E   E E E E E E E E   E E E E E E E E
||--3-3-x-3-3-3-x-3-|-3-3-x-3-3-3-x-3-|-3-3-x-3-3-3-x-3-|-3-3-x-3-3-3-x-3---||
||o-5-5-x-5-5-5-x-5-|-5-5-x-5-5-5-x-5-|-3-3-x-3-3-3-x-3-|-3-3-x-3-3-3-x-3--o||
||--4-4-x-4-4-4-x-4-|-4-4-x-4-4-4-x-4-|-4-4-x-4-4-4-x-4-|-4-4-x-4-4-4-x-4---||
||--5-5-x-5-5-5-x-5-|-5-5-x-5-5-5-x-5-|-5-5-x-5-5-5-x-5-|-5-5-x-5-5-5-x-5---||
||o-3-3-x-3-3-3-x-3-|-3-3-x-3-3-3-x-3-|-5-5-x-5-5-5-x-5-|-5-5-x-5-5-5-x-5--o||
||------------------|-----------------|-3-3-x-3-3-3-x-3-|-3-3-x-3-3-3-x-3---||


   Chorus
    Am
    Gtr II
    E E E E E E E E   E E E E  E  E E E
||--x-0-x-0-x-0-x-0-|-x-0-x-0--x--0-x-0-|
||o-x-1-x-1-x-1-x-1-|-x-1-x-1--x--1-x-1-|
||--x-2-x-2-x-2-x-2-|-x-2-x-2--x--2-x-2-|
||------------------|-------------------|
||o-----------------|-------------------|
||------------------|-------------------|
|
|   Gtr I
|   Q   E E Q   E E   E E E E +E  E Q
||--0-----0-0-----0-|---0---2-(2)-0-2---|
||o-1-----1-1-----1-|---1---1-(1)-1-1---|
||--2-----2-2-----2-|---2---2-(2)-2-2---|
||------------------|-------------------|
||o-----------------|-------------------|
||------------------|-------------------|


  G
  E  E E E E E E E    E  E E E  E  E   E E  4x
|-x--3-x-3-x-3-x-3-|--x--3-x-3--x--3---x-3--||
|-x--0-x-0-x-0-x-0-|--x--0-x-0--x--0---x-0-o||
|-x--0-x-0-x-0-x-0-|--x--0-x-0--x--0---x-0--||
|------------------|------------------------||
|------------------|-----------------------o||
|------------------|------------------------||
|
| q.     E E Q   E   +E  q   E +E  S S E E  4x
|-3------3-2-0-----|------------------------||
|-0------0-0-0---3-|-(3)-1---0-(0)-----0-1-o||
|-0--------0-0-----|-----0---0-(0)-0h2------||
|------------------|------------------------||
|------------------|-----------------------o||
|------------------|------------------------||


 Bridge
  Bm
  Gtr I
          |---3----|
  E Q  E +Q    Q   Q   S S Q  E +E  E Q
|--------------------|-2h5p2-------------|
|------------------3-|--------3-(3)------|
|--------------4-----|----------------2--|
|------4-(4)---------|-------------------|
|---2----------------|--------------2----|
|--------------------|-------------------|
|
| Gtr II
| E Q  E +E  E   Q     E   Q  E +E  E Q
|----------------2---|----------------2--|
|------3-(3)---------|--------3-(3)------|
|---2--------2-------|-----2-------------|
|--------------------|-------------------|
|-2------------------|-2------------2----|
|--------------------|-------------------|

[ Tab from: http://www.guitartabs.cc/tabs/0-9/311/ill_be_here_awhile_tab_ver_5.html ]
  Em
  Q.    E +E  Q   E   W
|-----------------3-|-------------------|
|-------------3-----|-0-----------------|
|-------4-(4)-------|-------------------|
|-------------------|-------------------|
|-------------------|-------------------|
|-0-----------------|-------------------|
|
| E  Q  E +E  E Q     E Q  E +E  E Q
|---------------0---|--------------0----|
|-------0-(0)-------|------0-(0)--------|
|----0--------0-----|---0--------0------|
|-------------------|-------------------|
|-------------------|-------------------|
|-0-----------------|-0-----------------|


  Bm                                     Em
  E Q  E +E  Q   E   S S Q  E +Q    Q    Q.    E +E  Q   E   W
|------------------|-2h5p2-------------|-----------------3-|-----------------|
|----------------3-|--------3-(3)------|-------------3-----|-0---------------|
|------------2-----|----------------2--|-------4-(4)-------|-----------------|
|------4-(4)-------|-------------------|-------------------|-----------------|
|---2--------------|-------------------|-------------------|-----------------|
|------------------|-------------------|-0-----------------|-----------------|
|
| E Q  E +E  E Q     E   Q  E +E  E Q    E  Q  E +E  E Q     E Q  E +E  E Q
|--------------2---|----------------2--|---------------0---|--------------0--|
|------3-(3)-------|--------3-(3)------|-------0-(0)-------|------0-(0)------|
|---2--------2-----|-----2-------------|----0--------0-----|---0--------0----|
|------------------|-------------------|-------------------|-----------------|
|-2----------------|-2------------2----|-------------------|-----------------|
|------------------|-------------------|-0-----------------|-0---------------|


  Cmaj7/G                            G
   H      +Q.    E   Q.   E +H        H      +Q.    E   Q  E E +E  Q  E
|-^0------(0)------|-0-------------|-^3------(3)------|-3----0-(0)------|
|-^0------(0)----0-|------0-(0)----|-^3------(3)----3-|----3-------3--0-|
|-^0------(0)------|---------------|-^0------(0)------|-----------------|
|-^2------(2)------|---------------|-^0------(0)------|-----------------|
|-^3------(3)------|---------------|-^2------(2)------|-----------------|
|-^3------(3)------|---------------|-^3------(3)------|-----------------|
|
|  E Q  E +E  Q  E   W                E Q  E +E  Q  E   W
|------------------|-0-------------|------------------|-3---------------|
|----------------0-|---------------|----------------3-|-----------------|
|-------------0----|---------------|-------------0----|-----------------|
|-------2-(2)------|---------------|-------0-(0)------|-----------------|
|----3-------------|---------------|----2-------------|-----------------|
|--3---------------|---------------|--3---------------|-----------------|


  Cmaj7/G
  E Q  E +E  Q.      Q.   E +E  Q  E
|------0-(0)-------|------0-(0)------|
|------------1-----|------------0----|
|------------------|---------------0-|
|------------------|-----------------|
|---3--------------|-3---------------|
|-3----------------|-----------------|
|
| E Q  E +E  Q   E   W
|------------------|-0---------------|
|----------------0-|-----------------|
|------------0-----|-----------------|
|------2-(2)-------|-----------------|
|---3--------------|-----------------|
|-3----------------|-----------------|


  G
                       <
  Q.    E +E  E E E   +E  E E E +E  E E E
|-------3-(3)-----3-|-(3)-----3-(3)-------||
|-------------3-----|-----3---------3---3-||
|---------------0---|-------0---------0---||
|-------------------|---------------------||
|-------------------|---------------------||
|-3-----------------|---------------------||
|
| E  Q  E +E  Q   E    W
|-------------------|--3------------------||
|-----------------3-|---------------------||
|-------------0-----|---------------------||
|-------0-(0)-------|---------------------||
|----2--------------|---------------------||
|-3-----------------|---------------------||


 Out-Chorus
  Am
  Gtr II
  E E E E E E E E   E E E E  E  E E E
|-x-0-x-0-x-0-x-0-|-x-0-x-0--x--0-x-0-|
|-x-1-x-1-x-1-x-1-|-x-1-x-1--x--1-x-1-|
|-x-2-x-2-x-2-x-2-|-x-2-x-2--x--2-x-2-|
|-----------------|-------------------|
|-----------------|-------------------|
|-----------------|-------------------|
|
| Gtr I
| Q   E E Q   E E   E E E E +E  E Q
|-0-----0-0-----0-|---0---2-(2)-0-2---|
|-1-----1-1-----1-|---1---1-(1)-1-1---|
|-2-----2-2-----2-|---2---2-(2)-2-2---|
|-----------------|-------------------|
|-----------------|-------------------|
|-----------------|-------------------|


  G
  E  E E E E E E E    E  E E E  E  E   E E
|-x--3-x-3-x-3-x-3-|--x--3-x-3--x--3---x-3-|
|-x--0-x-0-x-0-x-0-|--x--0-x-0--x--0---x-0-|
|-x--0-x-0-x-0-x-0-|--x--0-x-0--x--0---x-0-|
|------------------|-----------------------|
|------------------|-----------------------|
|------------------|-----------------------|
|
| q.     E E Q   E   +E  q   E +E  S S E E
|-3------3-2-0-----|-----------------------|
|-0------0-0-0---3-|-(3)-1---0-(0)-----0-1-|
|-0--------0-0-----|-----0---0-(0)-0h2-----|
|------------------|-----------------------|
|------------------|-----------------------|
|------------------|-----------------------|


  Am
  E E E E E E E E   E E E E  E  E E E
|-x-0-x-0-x-0-x-0-|-x-0-x-0--x--0-x-0-|
|-x-1-x-1-x-1-x-1-|-x-1-x-1--x--1-x-1-|
|-x-2-x-2-x-2-x-2-|-x-2-x-2--x--2-x-2-|
|-----------------|-------------------|
|-----------------|-------------------|
|-----------------|-------------------|
|
| Q   E E Q   E E   E E E E +E  E Q
|-0-----0-0-----0-|---0---2-(2)-0-2---|
|-1-----1-1-----1-|---1---1-(1)-1-1---|
|-2-----2-2-----2-|---2---2-(2)-2-2---|
|-----------------|-------------------|
|-----------------|-------------------|
|-----------------|-------------------|


  G
  E E E E E E E E   E E E E E   E   E E
|-x-3-x-3-x-3-x-3-|-x-3-x-3-x---3---x-3---|
|-x-0-x-0-x-0-x-0-|-x-0-x-0-x---0---x-0---|
|-x-0-x-0-x-0-x-0-|-x-0-x-0-x---0---x-0---|
|-----------------|-----------------------|
|-----------------|-----------------------|
|-----------------|-----------------------|
|
| E E E E E E E E   E Q   E S S S S E E
|-3-----2-----0---|-----------------------|
|---0-----0-----0-|---3-----1p0-----0-1---|
|-----0-----0-----|-0-----0-----0h2-------|
|-----------------|-----------------------|
|-----------------|-----------------------|
|-----------------|-----------------------|


  Am
  E E E E E E E E   E E E E  E  E E E
|-x-0-x-0-x-0-x-0-|-x-0-x-0--x--0-x-0-|
|-x-1-x-1-x-1-x-1-|-x-1-x-1--x--1-x-1-|
|-x-2-x-2-x-2-x-2-|-x-2-x-2--x--2-x-2-|
|-----------------|-------------------|
|-----------------|-------------------|
|-----------------|-------------------|
|
| Q   E E Q   E E   E E E E +E  E Q
|-0-----0-0-----0-|---0---2-(2)-0-2---|
|-1-----1-1-----1-|---1---1-(1)-1-1---|
|-2-----2-2-----2-|---2---2-(2)-2-2---|
|-----------------|-------------------|
|-----------------|-------------------|
|-----------------|-------------------|


  G
  E  E E E E E E E    E  E E E  E  E   E E
|-x--3-x-3-x-3-x-3-|--x--3-x-3--x--3---x-3-|
|-x--0-x-0-x-0-x-0-|--x--0-x-0--x--0---x-0-|
|-x--0-x-0-x-0-x-0-|--x--0-x-0--x--0---x-0-|
|------------------|-----------------------|
|------------------|-----------------------|
|------------------|-----------------------|
|
| q.     E E Q   E   +E  q   E +E  S S E E
|-3------3-2-0-----|-----------------------|
|-0------0-0-0---3-|-(3)-1---0-(0)-----0-1-|
|-0--------0-0-----|-----0---0-(0)-0h2-----|
|------------------|-----------------------|
|------------------|-----------------------|
|------------------|-----------------------|


  Am                                    G
  E E E E E E E E   E E E E  E  E E E   W          +W
|-x-0-x-0-x-0-x-0-|-x-0-x-0--x--0-x-0-|-3--------|-(3)----*|
|-x-1-x-1-x-1-x-1-|-x-1-x-1--x--1-x-1-|-0--------|-(0)----*|
|-x-2-x-2-x-2-x-2-|-x-2-x-2--x--2-x-2-|-0--------|-(0)----*|
|-----------------|-------------------|-0--------|-(0)----*|
|-----------------|-------------------|----------|--------*|
|-----------------|-------------------|----------|--------*|
|
| Q   E E Q   E E   E E E E +E  E Q     W          +W
|-0-----0-0-----0-|---0---2-(2)-0-2---|-3--------|-(3)----*|
|-1-----1-1-----1-|---1---1-(1)-1-1---|-0--------|-(0)----*|
|-2-----2-2-----2-|---2---2-(2)-2-2---|-0--------|-(0)----*|
|-----------------|-------------------|-0--------|-(0)----*|
|-----------------|-------------------|----------|--------*|
|-----------------|-------------------|----------|--------*|
Comments