311 - Hydroponics Chords & Tabs

 

Hydroponics Chords & Tabs

311 Chords & Tabs

Version: 2 Type: Tab 0 ratings
1 star 2 stars 3 stars 4 stars 5 stars
comments

Hydroponics Tab

   
#----------------------------------PLEASE NOTE---------------------------------#
#This file is the author's own work and represents their interpretation of the #
#song. You may only use this file for private study, scholarship, or research. #
#------------------------------------------------------------------------------#
#

311: hydrponics
============
off of the lp "311 music"
tabbed by eLiTenDo

intro: heavily distorted
e-------------------|
b-------------------|
g-------------------|
d-------------------|
a-2~~~~~~~~~~~~~~~~~ let ring through the bass intro
E-0~~~~~~~~~~~~~~~~~

intro and verse: heavy distort
e------------------------------------|
b------------------------------------|
g------------------------------------|
d------------------------------------|
a-2-2--7-7--5-5--x--3--x--3--x--3-3--|
E-0-0--5-5--3-3--x--1--x--1--x--1-1--|      x4 x3
[ Tab from: http://www.guitartabs.cc/tabs/0-9/311/hydroponics_tab_ver_2.html ]
where he starts goin' every thing i eat is from the earth:
e---------------------------------------------------|
b---------------------------------------------------|
g---------------------------------------------------|
d---------------------------------------------------|
a-4-4-x-4-x-x-x-x--4--4-4-x-x-4-4-x-x-4-4-4--2--3---|
E-2-2-x-2-x-x-x-x--2--2-2-x-x-2-2-x-x-2-2-2--0--1---|
                                                      x2
e---------------------------------------------------|
b---------------------------------------------------|
g---------------------------------------------------|
d---------------------------------------------------|
a---4-4-x-4-x-x-x-x--4--4-4-x-x-4-4-x-x-4-4-4--7--7-|
E---2-2-x-2-x-x-x-x--2--2-2-x-x-2-2-x-x-2-2-2--5--5-|


the part after that :
e-------------------------------------------------------------|
b-------------------------------------------------------------|
g-------------------------------------------------------------|
d-------------------------------------------------------------|
a-7-7-7--7-7-8-7-7-8-7-7-7-9-9-9-9-9-10-9-9-9-10--9-9-9-9-9-9-|
E-5-0-5--0-5-6-0-5-6-0-5-0-7-0-7-0-7-8 -0-7-0-8 --7-7-7-7-7-7-|


happy part where he starts sayin' "jumpin out my skin":
e----------------------------           e-9--|
b-9-9-x----------------------           b-9--|
g-9-9-x----------------------           g-9--|
d-9-9-x----------------------           d-11-|
a-7-7-x-7-7-x-9-9-9-9-9-9-9-9  x4  play a-11-|
E-------5-5-x-7-7-7-7-7-7-7-7           E-9--|

then repeat the whole thing over
e-mail to we3travel@aol.com -
it might take me a while to get to it though
Comments