311 - How Do You Feel Chords & Tabs

 

How Do You Feel Chords & Tabs

311 Chords & Tabs

Version: 3 Type: Tab 0 ratings
1 star 2 stars 3 stars 4 stars 5 stars
comments

How Do You Feel Tab

Band:311
Title: How do you Feel?
As heared on 311's: Greatest Hits
Tabbed By Arsenio Aguirre
E-mail: arsenal_arsenio@netzero.com
*Note*: This is my first tab and this is what I got so far. Reggae part coming soon

Riff 1:

e -------------------------------------------------------|
b -------------------------------------------------------|
g -------------------------------------------------------|
d -2-4-2-4-4-4---2-4-2-4-4-4---2-4-2-4-44---2-4-2-4-44---|
a -2-4-2-4-4-4---2-4-2-2-4-4---2-2-2-4-44---2-4-2-4-44---|
E -0-2-0-2-2-2---0-2-0-2-2-2---0-2-0-2-22---0-2-0-2-22---|

Riff 2:
[ Tab from: http://www.guitartabs.cc/tabs/0-9/311/how_do_you_feel_tab_ver_3.html ]
e --------------------------------------|
b --------------------------------------|
g --------------------------------------|
d -4445556666--4445556666--4445556--6---|
a -4445554444--4445554444--4445554--4---|
E -2223334444--2223334444--2223334--4---|

Riff 3:

Palm muted

e ---------------------------------|
b ---------------------------------|
g ---------------------------------|
d -4444444222222277777779999999----|
a -4444444222222277777779999999----|
E -2222222000000055555557777777----|

Bridge:

e ----------------|
b ----------------|
g ----------------|
d -4---4---4---4--|
a -4---4---4---4--|
E -2---2---2---2--|

Outro:

e ------------------|
b ------------------|
g ------------------|
d -4---4---4---4\0--|
a -4---4---4---4\0--|
E -2---2---2---2\0--|
Comments