311 - Homebrew Chords & Tabs

 

Homebrew Chords & Tabs

311 Chords & Tabs

Version: 2 Type: Tab 0 ratings
1 star 2 stars 3 stars 4 stars 5 stars
comments

Homebrew Tab

   
The 311 Guitar Archive - Homebrew - Guitar TabHomebrew - Guitar Tab
Last Updated:  July 29, 1999 



'Homebrew'
Performed by 311
From the album "Grassroots" on Capricorn Records
Music by:  T. Mahoney, N. Hexum, A. Wills & C. Sexton
Lyrics by:  N. Hexum & D. Martinez
(c) 1994 Allegiance Music/Hydroponic Music BMI
---------------
Tabbed by: Michael Slusarz (slusarz@ucsu.colorado.edu)
Additions/Corrections by: 
     Christopher Comeaux (Christopher.Comeaux@Eng.Auburn.EDU)
     Gez (drg127@psu.edu)
     Craig Lombardo (MrLombardo@worldnet.att.net)
     Adam Sherrerd (psherrerd@tconl.com)
     Mr. Neil (borderg@ocps.k12.fl.us)
     Eric Midgett (plain311@hotmail.com)
     RC311Yeh (RC311Yeh@aol.com)
The 311 Guitar Archive -- http://chromosome.colorado.edu/311archive/


Intro/Riff 1 (palm muted):
==========================
   N.C.
1:-----------------------------
2:-----------------------------
3:-----------------------------
4:---2-2p0---0-2p0-----2p0-----
5:---------2-------(2)-----2p0-
6:-0---------------------------

Tim uses the Boss OC-2 octave pedal, which he uses in this riff.
(He discribes it better in his Guitar World interview.)
                         -- Craig Lombardo (MrLombardo@worldnet.att.net)

Riff 2:
=======
   E5            F5 E5            F5 E5            F5 N.C.
1:----------------------------------------------------------------(7)-----
2:------------------------------------------------------------(7)-----(7)-
3:----------------------------------------------------(7)-(7)-------------
4:-2-2-2-2-2-2-2-3--2-2-2-2-2-2-2-3--2-2-2-2-2-2-2-3----------------------
5:-2-2-2-2-2-2-2-3--2-2-2-2-2-2-2-3--2-2-2-2-2-2-2-3----------------------
6:-0-0-0-0-0-0-0-1--0-0-0-0-0-0-0-1--0-0-0-0-0-0-0-1----------------------
                                                     |    Harmonics      |

Pre-Chorus:
===========
   Am7
1:-5-5-5-5--x-x-x-x-x-
2:-5-5-5-5--x-x-x-x-x-
3:-5-5-5-5--x-x-x-x-x-
4:-5-5-5-5--x-x-x-x-x-
5:--------------------
6:--------------------

Chorus:
=======
   G5         C      B      A       Asus2
1:----------------------------------0-
2:------------5-5-5--4-4-4--2-2-2---0-
3:------------5-5-5--4-4-4--2-2-2---2-
4:-5-5-5-5-5--5-5-5--4-4-4--2-2-2---2-
5:-5-5-5-5-5--3-3-3--2-2-2--0-0-0---0-
6:-3-3-3-3-3--------------------------

   G5         C      B      A      N.C. A5 N.C.
1:--------------------------------------------
2:------------5-5-5--4-4-4--2-2-2-------------
3:------------5-5-5--4-4-4--2-2-2-------2-----
4:-5-5-5-5-5--5-5-5--4-4-4--2-2-2-------2-----
5:-5-5-5-5-5--3-3-3--2-2-2--0-0-0-------0-----
6:-3-3-3-3-3------------------------b3b---3p0-

   G5         C B A N.C.
1:---------------------------------------
2:------------5-4-2----------------------
3:------------5-4-2-7p5p0-----8p5p0------
4:-5-5-5-5-5--5-4-2------7p5p0-----7p5p0-
5:-5-5-5-5-5--3-2-0----------------------
6:-3-3-3-3-3-----------------------------
[ Tab from: http://www.guitartabs.cc/tabs/0-9/311/homebrew_tab_ver_2.html ]
   G5         C      B      A
1:--------------------------------
2:------------5-5-5--4-4-4--2-2-2-
3:------------5-5-5--4-4-4--2-2-2-
4:-5-5-5-5-5--5-5-5--4-4-4--2-2-2-
5:-5-5-5-5-5--3-3-3--2-2-2--0-0-0-
6:-3-3-3-3-3----------------------

Fill (w/Octaver):
=================
   N.C.
1:--------------------------------------------------
2:--------------------------------------------------
3:--------------------------------------------------
4:--------------------------------------------------
5:-5--5-5-5-5-5-7-5-5h4-5//7-5--5-5-5-5-5-7-5-7-5-5-
6:--------------------------------------------------

Ending:
=======
   Cmaj7 Dmaj7 E5      E      Cmaj7 Dmaj7 E
1:-3-----5---------------0-0--3-----5-----0-
2:-5-----7---------------0-0--5-----7-----0-
3:-4-----6-------------1-1-1--4-----6-----1-
4:-5-----7-----2-2-2-2-2-2-2--5-----7-----2-
5:-3-----5-----2-2-2-2-2-2-2--3-----5-----2-
6:-------------0-0-0-0-0-0-0--------------0-


Lyrics/Song Structure:
======================
---> Play Riff 1 (x8)
---> Play Riff 1 over:
   Now I know fools get their own when they chit chat
   Haven't heard yet but you can bet I'm not with that
   With that talk with that digi walk
   I stack a bird you heard absurd word to the fact I'm a
---> Play Riff 2 over:
   Nippin' Sippin' on the flask
   Passin it talkin' shit but only if your ass
   In front of me cause you could run from me but
   In the end revenge sends you to the defendant
   I can't get caught in the spiral, cause every bit of energy
   It goes to my survival out my way
   I'm a flicka flacka blotter
   Ya try to find a weakness but the shit keeps getting harder
---> Play Pre-Chorus over:
   Fourth of July/with Lucy in Sky
   I remember pine trees and the coat of many colors
   I was nineteen/I'd do anything
   Shit like that now scares me but I'd like to do it again
---> Play Chorus over:
   It was Independence Day
   I've seen the other side and I say
   I've been insane
   And I won't ever be the same
---> Play Riff 1 (w/Fill 1) over:
   Cuz we flow we must be fly
   First to flow Nickel my brother so wise
   And then I rise here's an ill kid pumpin' cuz he is so slick
   Step's from darkness his body electric
   A drone buzzes the air a cracklin' tone
   Then boomin' like thunder in a cosmic jungle
   Death defyin' like Knievel he weevil
   Words that will wobble awkward and evil
---> Play Riff 2 over:
   Cuz he flow and rock the hardest of the crowds
   A marvel pow how you like me now
   I've returned the kiss of death the last Damien
   From the abyss fresh eternal alien
   Now famished from pathless ways I ma, do damage
   To the wack MC's I know you can't stand this
   Right about now get down I'm the annhilator
   Rockin' with the rhythm of my rhyme detonator
---> Play Pre-Chorus over:
   Fourth of July/with Lucy in Sky
   I remember pine trees and the coat of many colors
   I was nineteen/I'd do anything
   Shit like that now scares me but I'd like to do it again
---> Play Chorus over:
   It was Independence Day
   I've seen the other side and I say
   I've been insane
   And I won't ever be the same
---> Play Ending



       The 311 Guitar Archive  (311archive@chromosome.colorado.edu) 
       1995-2000 Michael M Slusarz (slusarz@chromosome.colorado.edu) 
      Page Generated (via PHP 4.0b4pl1) :   Monday, April 10, 2000; 2:23 PM [ 
      Archive Home | All Albums | 
      Grassroots ]

Comments