311 - Fuck The Bullshit Chords & Tabs

 

Fuck The Bullshit Chords & Tabs

311 Chords & Tabs

Version: 1 Type: Bass Tab 0 ratings
1 star 2 stars 3 stars 4 stars 5 stars
comments

Fuck The Bullshit Bass Tab

     Song: Fuck the Bullshit
     Band: 311
     Tabbed By: Bucko (bassmanbucko@yahoo.com)

Riff 1:

G:-------------------------4---4--------------------------------
D:-------------------------------------------------------6---6--
A:-----------0-------0-------2----------------------------------> x3
E:-2-----2-------2---------------0-----0---4---0---5---5---4----
B:--------------------------------------------------------------
   s     s   s   s   s     p s p s     s   s   s   s   s p s p 

G:-----------------------------------
D:-----------------------------------
A:-----------0-----------------------
E:-2-----2-------2---4-------------0-
B:-----------------------------------
   s     s   s   s   s             s

Riff 2a:

G:---------------------------------
D:---------------------------------
A:---------------0---------0-------
E:-2-------4---------4-4-------4---
B:---------------------------------

Riff 2b:

G:---------------------------------
D:---------4-----2---2-----2---4---
A:---------------------4-----------
E:-2---2---------------------------
B:---------------------------------

Riff 2c:                                Fill 1:

G:---------------------------------     G:------
D:---------------------------------     D:-2----   
A:-----------------0---------------     A:------
E:-2-------4---------------4-------     E:------
B:---------------------------------     B:------
                                           p

Fill 2:

G:---------------------------------------------------
D:---------------------------------------------------
A:---------------------------------------------------
E:-2-------2--2--2---------2--2--2-----0--4-----0----
B:---------------------------------------------------

Riff 3:                                               triplets
                                                       <--->
G:-----------------------7---7-------------------------------7-------
D:---x-----x-----x---x---------------x-----x-----x---x---x-----------
A:-----------------------------5h7-----------------------------x-5h7-
E:-0---0-x---0-x---0---0---x-------0---0-x---0-x---0---0---x---------
B:-------------------------------------------------------------------
   s p s s p s s p s p s p s p s   s p s s p s s p s p s p s p s s
[ Tab from: http://www.guitartabs.cc/tabs/0-9/311/fuck_the_bullshit_btab.html ]
                                                      triplets
                                                       <--->
G:-----------------------------------------------------------7---7h9-
D:---x-----x-----x---x---x-----------x-----x-----x---x---x-----------
A:-----------------------------5h7-----------------------------x-----
E:-0---0-x---0-x---0---0---5h7-----0---0-x---0-x---0---0---x---------
B:-------------------------------------------------------------------
   s p s s p s s p s p s p s   s   s p s s p s s p s p s p s p s p

Riff 4:

G:-------------------------------
D:-------------------------------
A:-------------------------------
E:-0-----2-----0-----2-----0---2-
B:-------------------------------

Riff 5 (Long Riff):

G:-----------------------------------------------------------------
D:-----------------------------------------------------------------
A:-----.---.---.-------.---.---.-------.---.---.-------.---.-5-.-5-
E:-0---0---0---0---0---0---0---0---0---0---0---0---0---0---0---0---
B:-----------------------------------------------------------------
   s   s   s   s   s   s   s   s   s   s   s   s   s   s   s p s p 

G:-----11-----9-----11-----9-----11-------11-----9-----11-----9-----9h11-
D:-----------------------------------------------------------------------
A:-9-x----9-x---9-x----9-x---9-x------9-x----9-x---9-x----9-x---9-x------
E:-----------------------------------------------------------------------
B:-----------------------------------------------------------------------
   s s p  s s p s s p  s s p s s p    s s p  s s p s s p  s s p s s p

G:-----11-----9-----11-----9-----9h11-----11-----13-----14-----9-----10--
D:-----------------------------------------------------------------------
A:-9-x----9-x---9-x----9-x---9-x------9-x----9-x----9-x----9-x---9-x-----
E:-----------------------------------------------------------------------
B:-----------------------------------------------------------------------
   s s p  s s p s s p  s s p s s p    s s p  s s p  s s p  s s p s s p

G:-----11-----9-----11-----9-----9h11-     G:-------------11-11-11-11------
D:------------------------------------     D:------------------------------
A:--x---------------------------------> x3 A:-9-9-9-9-9-9------------------
E:-7-x----7-x---7-x----7-x---7-x------     E:------------------------------
B:------------------------------------     B:------------------------------
   sps p  s s p s s p  s s p s s p

Riff 6:

G:---------------------------
D:---------------------------
A:---------0-----2-----------
E:-2-------------------------
B:---------------------------

Song Order:

Riff 1 x1                       . = Quiet Note
Riff 2ax4
Riff 2bx4
Riff 2cx3
Fill 1 x1
Riff 1 x1
Riff 2ax4
Riff 2bx4
Riff 2cx3
Fill 1 x1
Riff 1 x1
Fill 2 x1
Riff 3 x1
Riff 4 x8
Riff 5 x1
Riff 6 x4
Riff 2ax3
Fill 1 x1
Riff 1 x1
End on E
Comments