311 - From Chaos Chords & Tabs

 

From Chaos Chords & Tabs

311 Chords & Tabs

Version: 1 Type: Bass Tab 0 ratings
1 star 2 stars 3 stars 4 stars 5 stars
comments

From Chaos Bass Tab

'From Chaos'
Performed By:311
Album:From Chaos(2001)
Tabber:T4-TURBO

Main Riff:
G:----------------------------------------------------|
D:----------------------------------------------------|
A:---------------------------------------3------------|
E:3--3-3-1--1-1---0-1-1-2--3--3-3-1--1-1-----X-X-0-0-1|
B:--------------1-------------------------------------|
[ Tab from: http://www.guitartabs.cc/tabs/0-9/311/from_chaos_btab.html ]
Riff 2 when S.A. Sings:
G:------------------|
D:------------------|
A:0--0-0-0--0-3-5-3-|
E:------------------|
B:------------------|

Riff 3:
G:----------------|
D:----------------|
A:-------5-5-5-5-3|
E:3--3-3----------|
B:----------------|

Riff4:
G:-------------------------------|
D:-------------------------------|
A:----5-3-3-1-1-0-----5-5-3-1-1-0|
E:3-3-------------3-3------------|
B:-------------------------------|

end.
Comments