311 - Freak Out Chords & Tabs

 

Freak Out Chords & Tabs

311 Chords & Tabs

Version: 1 Type: Tab 1 rating
1 star 2 stars 3 stars 4 stars 5 stars
comments

Freak Out Tab

   
Freak Out 


Intro/Riff 1:311-freak out
=============
   N.C.
1:---------------------------------------
2:---------------------------------------
3:---------------------------------------
4:-------------------------------------5-
5:-5-7-7-7-5-7-5-7-x-x-5-7-7-7-5-7-5-7---
6:---------------------------------------

   N.C.                              B5  A#5 A5
1:---------------------------------------------
2:---------------------------------------------
3:---------------------------------------------
4:-----------------------------------9---8---7-
5:-5-7-7-7-5-7-5-7-x-x-5-7-7-7-5-7---9---8---7-
6:-----------------------------------7---6---5-

Riff 2 (w/Distortion):
======================
   Dm    N.C.     C      B  C  Dm    N.C.     C  B  C      B  C
1:-10\\------------------------10\\-----------------------------
2:-10\\-----------5-5-5--4--5--10\\-----------5--4--5---5--4--5-
3:-10\\------5-7--5-5-5--4--5--10\\------5-7--5--4--5---5--4--5-
4:-------5-7------5-5-5--4--5--------5-7------5--4--5---5--4--5-
5:----------------3-3-3--2--3-----------------3--2--3---3--2--3-
6:--------------------------------------------------------------
[ Tab from: http://www.guitartabs.cc/tabs/0-9/311/freak_out_tab.html ]
Riff 3 (w/Distortion):
======================
[Guitar 1:]
   (A)   (C) (A) (C) (D)
1:----------------------
2:----------------------
3:----------------------
4:----------------------
5:-0-0-0--3---0---3---5-
6:----------------------

[Guitar 2:]
   A5    C5 (A) C5 D5
1:---------------------
2:---------------------
3:-------5------5--7-7-
4:-7-7-7-5------5--7-7-
5:-7-7-7-3--0---3--5-5-
6:-5-5-5---------------

Chorus (w/Heavy Distortion):
============================
   E       A       D/A A   E
1:-0---0---0---0---2---0---0-
2:-0---0---2---2---3---2---0-
3:-1---1---2---2---2---2---1-
4:-2---2---2---2---0---2---2-
5:-2---2---0---0---0---0---2-
6:-0---0-------------------0-

Riff 4 (w/Distortion):
======================
   E5       D5              C5 A   D5 C5
1:--------------------------------------
2:--------------------------------------
3:-9--9--9--9--7--7--7---7--5-(5)--7--5-
4:-9--9--9--9--7--7--7---7--5-(5)--7--5-
5:-7--7--7--7--5--5--5---5--3--0---5--3-
6:--------------------------------------

Riff 5 (w/Distortion):
======================
   A5    C      A5    C     G5 Ab5
1:-------------------------------
2:-------------------------------
3:-------------------------------
4:-7-7-7-10//---7-7-7-10//--5--6-
5:-7-7-7-10//---7-7-7-10//--5--6-
6:-5-5-5--8//---5-5-5--8//--3--4-

Ending:
=======
   N.C.
1:-------------------
2:-------------------
3:-------------------
4:-------------------
5:-------2-5-2-------
6:-0-3-4-------b3b-2-

 
Comments