311 - Flowing Chords & Tabs

 

Flowing Chords & Tabs

311 Chords & Tabs

Version: 1 Type: Tab 0 ratings
1 star 2 stars 3 stars 4 stars 5 stars
comments

Flowing Tab

   
311, Flowing
Steve Nowowiejski, Nowo311@aol.com
'Flowing'
Performed By 311
From the album "Soundsystem" on Capricorn Records
Music by:  N. Hexum
Lyrics by:  N. Hexum
Tabbed By: Steve Nowowiejski (Nowo311@aol.com)

Intro:
======
G# - Cm - B - F#
With weird effects on a synth.

Chorus:
=======
   G#5      C5       B5       F#5 C#5
1:------------------------------------
2:------------------------------------
3:----------5-5-5-5--4-4-4-4------6-6-
4:-6-6-6-6--5-5-5-5--4-4-4-4--4-4-6-6-
5:-6-6-6-6--3-3-3-3--2-2-2-2--4-4-4-4-
6:-4-4-4-4--------------------2-2-----


Verse:
======
[Part 1:]

   F5 F#5    G5 G#5    F5     F#5 G5 G#5
1:------------------------------------------
2:------------------------------------------
3:------------------------------------------
4:-3--4-4-4--5--6-6-6--3-3-3--4---5--6-6-6--
5:-3--4-4-4--5--6-6-6--3-3-3--4---5--6-6-6--
6:-1--2-2-2--3--4-4-4--1-1-1--2---3--4-4-4--
[ Tab from: http://www.guitartabs.cc/tabs/0-9/311/flowing_tab.html ]
(Palm mute on the F#5 and G#5.  Also palm mute the F5 the second time.)

[Part 2:]

   A#5 G#5 A#5 G#5 A#5 G#5 A#5 G#5
1:-------------------------------
2:-------------------------------
3:-------------------------------
4:-8---6---8---6---8---6---8---6-
5:-8---6---8---6---8---6---8---6-
6:-6---4---6---4---6---4---6---4-

[Part 3 (Palm Muted):]

   F5     F#5    G5     G#5
1:----------------------------
2:----------------------------
3:----------------------------
4:-3-3-3--4-4-4--5-5-5--6-6-6-
5:-3-3-3--4-4-4--5-5-5--6-6-6-
6:-1-1-1--2-2-2--3-3-3--4-4-4-


Song Structure:
===============
Play Intro (x2)
Play Chorus (x4) 
Play Verse Part 1 (x2)
Play Verse Part 1 (x4) 
Play Verse Part 2 (x1) 
Play Verse Part 3 (x2) 
Play Verse Part 2 (x1) 
Play verse Part 3 (x2) 
Play Chorus (x4) 
Play Verse Part 1 (x2)
Play Verse Part 1 (x4) 
Play Verse Part 2 (x1) 
Play Verse Part 3 (x2)
Play Verse Part 2 (x1) over:
Play Verse Part 3 (x2) over:
Play Chorus (x4) over:
End on F#5 (244xxx)


Comments