311 - Flowing Chords & Tabs

 

Flowing Chords & Tabs

311 Chords & Tabs

Version: 4 Type: Bass Tab 0 ratings
1 star 2 stars 3 stars 4 stars 5 stars
comments

Flowing Bass Tab

                       INTRO

STAND.TUNING

G)------------------
D)-------------4----
A)-3-------------3--
E)-----0----4-------


                 CHORUS 
       THE STUMMING IS THE BEAT OF THE SINGERS VOICE NOTES

G)---------------------------------
D)---------------------------------
A)---------3-3-3-3-2-2-2-2---------
E)-4-4-4-4----------------2-2-2-2--

       
             VERSE
[ Tab from: http://www.guitartabs.cc/tabs/0-9/311/flowing_btab_ver_4.html ]
G)-----------------------------------
D)-----------------------------------
A)-----------------------------------
E)-1-2-2-2-2-3-4-4-4--1-1-2-2-3-3-4-4


                    PRE CHORUS

G)-----------------------------------------
D)-----------------------------------------
A)-----------------------------------------
E)-6-4-6-4-6-4-6-6-6-4---1-2-2-2-2-3-4-4-4-




     THIS SONG HAS A CATCHY BEAT ONCE U LEARNED HOW TO PLAY IT.I HAD A FRIEND THAT HAD TO TEACH ME THE CHORUS,BUT THE REST I FIGURED OUT BY MYSELF.IF U HAVE A COMMENT E-MAIL ME
Comments